Song name
# A B C D E F G H I J K L M N O P Q R S T U V W X Y Z

Rammstein - Liebe Ist Fuer Alle Da tab

**Drum Intro**

  e|-----------------|
  B|-----------------|
  G|-----------------|
  D|-----------------|
  A|-------/9~-------|
  D|--4-3------------|

Guitar 1                                        -
  e|------------------------------------|        |
  B|------------------------------------|        |
  G|------------------------------------|--|     | 
  D|--0-0-0-0--0-0-0--0-0-0--0-0/1------|  |     |
  A|--0-0-0-0--0-0-0--0-0-0--0-0/1------|  |     |
  D|--0-0-0-0--0-0-0--0-0-0--0-0/1------|  |     |
pm    . . .    . .    . .    .             |     |
                                           |--x3 |
                                           |     |
Guitar2                                    |     |
  e|------------------------------------|  |     |
  B|------------------------------------|  |     |
  G|--7-7-7-7--7-7-7--7-7-7--7-7/9------|--      |
  D|--7-7-7-7--7-7-7--7-7-7--7-7/9------|        |
  A|--5-5-5-5--5-5-5--5-5-5--5-5/7------|        |
  D|------------------------------------|        |
pm    . . .    . .    . .    .                   |--x2
                                                 |	
Guitar 1                                         |
  e|------------------------------------|        |
  B|------------------------------------|        |
  G|------------------------------------|--|     |
  D|--0-0-0-0--0-0-0--0-0-0--0-0/1------|  |     |
  A|--0-0-0-0--0-0-0--0-0-0--0-0/1------|  |     |
  D|--0-0-0-0--0-0-0--0-0-0--0-0/1------|  |     | 
pm    . . .    . .    . .    .             |     |
                                           |--x1 |
                                           |     |
Guitar 2                                   |     |
  e|------------------------------------|  |     |
  B|------------------------------------|  |     |
  G|--7-7-7-7--7-7-7--7-7-7--7-7/9------|--      |
  D|--7-7-7-7--7-7-7--7-7-7--7-7/9------|        |
  A|--5-5-5-5--5-5-5--5-5-5--5-5/7------|        |
  D|------------------------------------|        |
pm    . . .    . .    . .    .                   |	
                                                -

by 
ACDCFAN050


Tap to rate this tab
# A B C D E F G H I J K L M N O P Q R S T U V W X Y Z