Song name
# A B C D E F G H I J K L M N O P Q R S T U V W X Y Z

Rammstein - Mein Herz Brennt tab

----------------------------------------------------------------------------
			Mein Herz Brennt - Rammstein
----------------------------------------------------------------------------
Tabbed by: Bee-Ay
Email: Leviathan_ben@hotmail.com

Tuning: D-A-D-G-B-E

Intro and Chorus:
e|-------------------------------------------------------------------|
B|-------------------------------------------------------------------|
G|*-5-5-5-5---5-5-5-5---5-5-5-5-5-5-5-5---5-5-5-5---5-5-5-5-5-5-5-5--|
D|*-5-5-5-5---5-5-5-5---5-5-5-5-5-5-5-5---5-5-5-5---5-5-5-5-5-5-5-5--|
A|--3-3-3-3---3-3-3-3---3-3-3-3-3-3-3-3---3-3-3-3---3-3-3-3-3-3-3-3--|
E|-------------------------------------------------------------------|

e|--------------------------------------------------|
B|--------------------------------------------------|
G|--5-5-5-5---5-5-5-5-5-5-5-5-5---5-5-5-5--x-x-5-6-*|
D|--5-5-5-5---5-5-5-5-5-5-5-5-5---5-5-5-5--x-x-3/4-*|
A|--3-3-3-3---3-3-3-3-3-3-3-3-3---3-3-3-3--x-x-3/4--|
E|--------------------------------------------------|


Vers riff played on Acoustic guitar.
Also mixed very low, and i can't figure it out.
Its very, very difficult and sounds messed up, but cool.
Give me a message if you know the part.

Pre-Chorus:
I know i sounds like that every chord is
played 1 time each, but its just mixed very low.
So its played in this way:
e|-------------------------------------------------|
B|-------------------------------------------------|
G|*-5-5-5-5---5-5-5-5---5-5-5-5--------------------|
D|*-5-5-5-5---5-5-5-5---5-5-5-5-3-3-3-3---3-3-3-3--|
A|--3-3-3-3---3-3-3-3---3-3-3-3-3-3-3-3---3-3-3-3--|
E|------------------------------3-3-3-3---3-3-3-3--|

e|-------------------------------------------------------------------|
B|-------------------------------------------------------------------|
G|------------------------------------------------------------------*|
D|--3-3-3-3-6-6-6-6---6-6-6-6---6-6-6-6-5-5-5-5---5-5-5-5---5-5-5-5-*|
A|--3-3-3-3-6-6-6-6---6-6-6-6---6-6-6-6-5-5-5-5---5-5-5-5---5-5-5-5--|
E|--3-3-3-3-6-6-6-6---6-6-6-6---6-6-6-6-5-5-5-5---5-5-5-5---5-5-5-5--|


This is just the ending note that i have added. Break up to solo:
e|-------------------------------------------------------------------|
B|-------------------------------------------------------------------|
G|*-5-5-5-5---5-5-5-5---5-5-5-5-5-5-5-5---5-5-5-5---5-5-5-5-5-5-5-5--|
D|*-5-5-5-5---5-5-5-5---5-5-5-5-5-5-5-5---5-5-5-5---5-5-5-5-5-5-5-5--|
A|--3-3-3-3---3-3-3-3---3-3-3-3-3-3-3-3---3-3-3-3---3-3-3-3-3-3-3-3--|
E|-------------------------------------------------------------------|

e|-------------------------------------------------------|
B|-------------------------------------------------------|
G|--5-5-5-5---5-5-5-5-5-5-5-5-5---5-5-5-5--x-x-5-6------*|
D|--5-5-5-5---5-5-5-5-5-5-5-5-5---5-5-5-5--x-x-3/4--(0)-*|
A|--3-3-3-3---3-3-3-3-3-3-3-3-3---3-3-3-3--x-x-3/4--(0)--|
E|--------------------------------------------------(0)--|

[ Solo ]

With a little taste of WAH.
This part is played 2 times:
e|-----------------------------------------|
B|-----------------------------------------|
G|*----------------------------------------|
D|*-2-2-2-2--2/3--3-3--3/5--5-5--5/7--7-7--|
A|-----------------------------------------|
E|-----------------------------------------|

on the 3. time its played it says:
e|---------------------------------------------------------------------------------------|
B|---------------------------------------------------------------------------------------|
G|--------------------------------------------------------------------------------------*|
D|2-2-2-2--2/3--3-3--3/5--5-5--5/7--7-7--7/10--10-10--10/12--12-12--12/10--10/8--8/7-7~-*|
A|---------------------------------------------------------------------------------------|
E|---------------------------------------------------------------------------------------|

The rythm goes just like Pre-Chorus.
Its just 1 tone higher:
e|-------------------------------------------------|
B|-------------------------------------------------|
G|*------------------------------------------------|
D|*-7-7-7-7---7-7-7-7---7-7-7-7-5-5-5-5---5-5-5-5--|
A|--5-5-5-5---5-5-5-5---5-5-5-5-5-5-5-5---5-5-5-5--|
E|--0-0-0-0---0-0-0-0---0-0-0-0-5-5-5-5---5-5-5-5--|

e|-------------------------------------------------------------------|
B|-------------------------------------------------------------------|
G|------------------------------------------------------------------*|
D|--5-5-5-5-8-8-8-8---8-8-8-8---8-8-8-8-7-7-7-7---7-7-7-7---7-7-7-7-*|
A|--5-5-5-5-8-8-8-8---8-8-8-8---8-8-8-8-7-7-7-7---7-7-7-7---7-7-7-7--|
E|--5-5-5-5-8-8-8-8---8-8-8-8---8-8-8-8-7-7-7-7---7-7-7-7---7-7-7-7--|

I know that the first chord sounds like an open full D5 chord.
But it IS this one. Its all because its mixed very low.

And thats it! Very melodic and nice song.
Tap to rate this tab
 
# A B C D E F G H I J K L M N O P Q R S T U V W X Y Z