Song name
# A B C D E F G H I J K L M N O P Q R S T U V W X Y Z

Rammstein - Buck Dich tab

Help us improve GuitareTab! Take a short survey!
Tuning: DADGBE
        Drop d-Tuning

Intro (guitar1&2)
        1x                      2x
|-----------------------|  |--------------------|
|-----------------------|  |--------------------|
|-----------------------|  |--------------------|
|-----------------------|  |--------------------|
|-0-3-2-3-5-3--0-2-3-0--|  |-3-2-3-5-3--0-2-3-0-|
|-0-3-2-3-5-3--0-2-3-0--|  |-3-2-3-5-3--0-2-3-0-|

     1x              3x
|-----------|  |--------------------|
|-----------|  |--------------------|
|-----------|  |--------------------|
|-----------|  |--------------------|
|-3-2-3-5-3-|  |-3-2-3-5-3--0-2-3-0-|
|-3-2-3-5-3-|  |-3-2-3-5-3--0-2-3-0-

Verse (guitar1)
|------------------|
|------------------|
|------------------| 16x
|------------------|
|--1-1-1-1-1-1-1-1-|
|-1-1-1-1-1-1-1-1--|

Chorus (guitar1&2)
        3x               1x              4x
|-------------------- ----------- --------------------|
|-------------------- ----------- --------------------|
|-------------------- ----------- --------------------|
|-------------------- ----------- --------------------|
|-3-2-3-5-3--0-2-3-0- -3-2-3-5-3- -3-2-3-5-3--0-2-3-0-|
|-3-2-3-5-3--0-2-3-0- -3-2-3-5-3- -3-2-3-5-3--0-2-3-0-|

Verse (guitar1)
|------------------|
|------------------|
|------------------| 16x
|------------------|
|--1-1-1-1-1-1-1-1-|
|-1-1-1-1-1-1-1-1--|

Chorus (guitar1&2)
         4x                  1x	     
|-------------------- ------------------|
|-------------------- ------------------|
|-------------------- ------------------|
|-------------------- ------------------|
|-3-2-3-5-3--0-2-3-0- 5/7-7-7-7-7-7-7-7-|
|-3-2-3-5-3--0-2-3-0- 5/7-7-7-7-7-7-7-7-|

         2x                  1x
|-------------------- ------------------|
|-------------------- ------------------|
|-------------------- ------------------|
|-------------------- ------------------|
|-3-2-3-5-3--0-2-3-0- 9/7-7-7-7-7-7-7-7-|
|-3-2-3-5-3--0-2-3-0- 9/7-7-7-7-7-7-7-7-|
          4x                     1x	
|-------------------- --------------------------|
|-------------------- --------------------------| 
|-------------------- --------------------------| 
|-------------------- --------------------------|
|-3-2-3-5-3--0-2-3-0- 9/7-7-7-7-7-7-7-7-7-7-7-7-|
|-3-2-3-5-3--0-2-3-0- 9/7-7-7-7-7-7-7-7-7-7-7-7-|
Related for Buck Dich tab