Song name
# A B C D E F G H I J K L M N O P Q R S T U V W X Y Z

Rammstein - Mein Land tab

-----------------------------------------------------------------------------
			     Mein Land - Rammstein
-----------------------------------------------------------------------------
Tabbed by: Bee-Ay
Email:

Tuning: C-G-C-F-A-D

Space between notes is made for a better understanding.

Played with softly-tight kinda' distortion.

Intro/verse:
D|----------------------------------------------------------------------------------------------|
A|----------------------------------------------------------------------------------------------|
F|*--------------------------------------------------------------------------------------------*|
C|*--------------------------------------------------------------------------------------------*|
G|----------------------------------------------------------------------------------------------|
C|--12b13--0-0-0-0--10-12-13--0-0-0--10-13-12--0--12b13--0-0-0-0-0--13-13-13-10-10-10-10-11-11--|


Chorus:
D|----------------------------------------------------------------------------------------------
A|----------------------------------------------------------------------------------------------
F|*---------------------------------------------------------------------------------------------
C|*---------------------------------------------------------------------------------------------
G|----------------------------------------------------------------------------------------------
C|--12b13--0-0-0-0--10-12-13--0-0-0--10-13-12--0--12b13--0-0-0-0-0--13-13-13-10-10-10-10-11-11--

D|----------------------------------------------------------------------------------------------|
A|----------------------------------------------------------------------------------------------|
F|---------------------------------------------------------------------------------------------*|
C|---------------------------------------------------------------------------------------------*|
G|----------------------------------------------------------------------------------------------|
C|--12b13--0-0-0-0--10-12-13--0-0-0--10-13-12--0--3h5--5-5--3h5--5-5--3h5--5-5--3h5--5-5--------|


Bridge:

D|------------------------------------------------------------------------------------|
A|------------------------------------------------------------------------------------|
F|------------------------------------------------------------------------------------|
C|--0h1---------0h1---------0h1------x3 then--3h5--5-5--3h5--5-5--3h5--5-5--3h5--5-5--|
G|--0h1-0-0-0-0-0h1-0-0-0-0-0h1-0-0-----------3h5--5-5--3h5--5-5--3h5--5-5--3h5--5-5--|
C|--0h1-0-0-0-0-0h1-0-0-0-0-0h1-0-0-----------3h5--5-5--3h5--5-5--3h5--5-5--3h5--5-5--|
pm:     . . . .     . . . .     . .


Interlude:
D|---------------------------------------------------------|
A|---------------------------------------------------------|
F|---------------------------------------------------------|
C|-0---5---8------3----7-----0---5---8------3----7---------|
G|-0---5---8------3----7-----0---5---8------3----7---------|
C|-0---5---8------3----7-----0---5---8------3----7///19~~--|


And thats it. All riffs should be there.
Tap to rate this tab
# A B C D E F G H I J K L M N O P Q R S T U V W X Y Z