Song name
# A B C D E F G H I J K L M N O P Q R S T U V W X Y Z

Rammstein - Vergiss Uns Nicht tab

-----------------------------------------------------------------------------
			     Vergiss Uns Nicht - Rammstein
-----------------------------------------------------------------------------
Tabbed by: Bee-Ay
Email:

Tuning: C-G-C-F-A-D

D|------------------------------------------------------------------|
A|------------------------------------------------------------------|
F|*-----------------------------------------------------------------|
C|*-8-8-8-8-8-8-8-8-8-8-8-8-3-3-3-3-7-7-7-7-7-7-7-7-7-7-7-7-7-7-7-7-|
G|--8-8-8-8-8-8-8-8-8-8-8-8-3-3-3-3-7-7-7-7-7-7-7-7-7-7-7-7-7-7-7-7-|
C|--8-8-8-8-8-8-8-8-8-8-8-8-3-3-3-3-7-7-7-7-7-7-7-7-7-7-7-7-7-7-7-7-|

D|------------------------------------------------------------------|
A|------------------------------------------------------------------|
F|------------------------------------------------------------------|
C|--3-3-3-3-3-3-3-3-3-3-3-3-3-3-3-3-7-7-7-7-7-7-7-7-7-7-7-7-7-7-7-7-|
G|--3-3-3-3-3-3-3-3-3-3-3-3-3-3-3-3-7-7-7-7-7-7-7-7-7-7-7-7-7-7-7-7-|
C|--3-3-3-3-3-3-3-3-3-3-3-3-3-3-3-3-7-7-7-7-7-7-7-7-7-7-7-7-7-7-7-7-|

D|------------------------------------------------------------------|
A|------------------------------------------------------------------|
F|------------------------------------------------------------------|
C|--8-8-8-8-8-8-8-8-8-8-8-8-3-3-3-3-7-7-7-7-7-7-7-7-7-7-7-7-7-7-7-7-|
G|--8-8-8-8-8-8-8-8-8-8-8-8-3-3-3-3-7-7-7-7-7-7-7-7-7-7-7-7-7-7-7-7-|
C|--8-8-8-8-8-8-8-8-8-8-8-8-3-3-3-3-7-7-7-7-7-7-7-7-7-7-7-7-7-7-7-7-|

D|-------------------------------------------------------|
A|-------------------------------------------------------|
F|------------------------------------------------------*|
C|--5-5-5-5-5-5-5-5-5-5-5-5-5-5-5-5-7-7-7-7-7-7-7-7-7~~-*|
G|--5-5-5-5-5-5-5-5-5-5-5-5-5-5-5-5-7-7-7-7-7-7-7-7-7~~--|
C|--5-5-5-5-5-5-5-5-5-5-5-5-5-5-5-5-7-7-7-7-7-7-7-7-7~~--|


At the part with the string arrangement it ends with these two chords
showed in the end, before the breakdown to 3. verse:
D|----------------------------------------------------------|
A|----------------------------------------------------------|
F|----------------------------------------------------------|
C|--5-5-5-5-5-5-5-5-5-5-5-5-5-5-5-5-7-7-7-7-7-7-7-7-7---5--3|
G|--5-5-5-5-5-5-5-5-5-5-5-5-5-5-5-5-7-7-7-7-7-7-7-7-7---5--3|
C|--5-5-5-5-5-5-5-5-5-5-5-5-5-5-5-5-7-7-7-7-7-7-7-7-7---5--3|

In the last Chorus the last guitar chords
just follow the cymbals to the end:
D|---------------------------------------------------------|
A|---------------------------------------------------------|
F|---------------------------------------------------------|
C|--5-5-5-5-5-5-5-5-5-5-5-5-5-5-5-5-7--7--7--7--7--7--5--3-|
G|--5-5-5-5-5-5-5-5-5-5-5-5-5-5-5-5-7--7--7--7--7--7--5--3-|
C|--5-5-5-5-5-5-5-5-5-5-5-5-5-5-5-5-7--7--7--7--7--7--5--3-|
Tap to rate this tab
# A B C D E F G H I J K L M N O P Q R S T U V W X Y Z