Song name
# A B C D E F G H I J K L M N O P Q R S T U V W X Y Z

Rammstein - Mein Land tab

Main Riff / Verse

d|----------------------------------------|
A|----------------------------------------|
F|----------------------------------------|
C|----------------------------------------|
G|----------------------------------------|
C|12-13-0-0-0-0-10-12-13-0-0-0-10-12-13-12|


d|--------------------------------------------|
A|--------------------------------------------|
F|--------------------------------------------|
C|--------------------------------------------|
G|--------------------------------------------|
C|12-13-0-0-0-0-12-13-13-13-10-10-10-10-12-13-|

These 2 Parts belong together

Note: in 2nd Verse play the C-String on the 12th Fret between the lines   palm muted


Refrain



d|----------------------------------------|
A|----------------------------------------|
F|----------------------------------------|
C|----------------------------------------|
G|----------------------------------------|
C|12-13-0-0-0-0-10-12-13-0-0-0-10-12-13-12|


d|--------------------------------------------|
A|--------------------------------------------|
F|--------------------------------------------|
C|--------------------------------------------|
G|--------------------------------------------|
C|12-13-0-0-0-0-12-13-13-13-10-10-10-10-12-13-|


d|----------------------------------------|
A|----------------------------------------|
F|----------------------------------------|
C|----------------------------------------|
G|----------------------------------------|
C|12-13-0-0-0-0-10-12-13-0-0-0-10-12-13-12


d|---------------------------------------|
A|---------------------------------------|
F|---------------------------------------|
C|---------------------------------------|
G|---------------------------------------|
C|3-5-5-5--3-5-5-5--3-5-5-5--3-5-5-5-----|






Bridge


d|-----------------------------|------------------------------------|
A|-----------------------------|------------------------------------|
F|-------------------------3x--|------------------------------------|
C|1---------1---------1--------|-3-5-5-5--3-5-5-5--3-5-5-5--3-5-5-5-|
G|1---------1---------1--------|-3-5-5-5--3-5-5-5--3-5-5-5--3-5-5-5-|
C|1-0-0-0-0-1-0-0-0-0-1-0-0----|-3-5-5-5--3-5-5-5--3-5-5-5--3-5-5-5-|
PM| --------   -------- ---


Bridge 2


d|----------------------------------------------------------|
A|----------------------------------------------------------|
F|----------------------------------------------------------|
C|-0---5---8------3--3-7-----0---5---8-----3--3-7-----------|
G|-0---5---8------3--3-7-----0---5---8-----3--3-7-----------|
C|-0---5---8------3--3-7-----0---5---8-----3--3-7---/19~----|


i guess u can figure out what part is played in which part of the song, enjoy!
Tap to rate this tab
# A B C D E F G H I J K L M N O P Q R S T U V W X Y Z