Song name
# A B C D E F G H I J K L M N O P Q R S T U V W X Y Z

Rammstein - Mein Land tab

I've made a cover of this song and I receive many messages for the tab. So 
eventually I decided to make it.

My cover : http://www.youtube.com/watch?v=FCXVMbQUyuM

Tuning : CGCFAD

ENJOY!

MattyPS



Intro:

D|------------------------------------------------------------------------------------------------|
A|------------------------------------------------------------------------------------------------|
F|------------------------------------------------------------------------------------------------|
C|------------------------------------------------------------------------------------------------|
G|------------------------------------------------------------------------------------------------|
C|--12-13-12-12-0-0-10-12---13-12-0-0-10-13-12-0---12-13-12-12-0-0-10-13---13-13-10-10-10-10-11-11|

Played Twice.



Then:

D|------------------------------------------------------------------------------------------------|
A|------------------------------------------------------------------------------------------------|
F|------------------------------------------------------------------------------------------------|
C|------------------------------------------------------------------------------------------------|
G|------------------------------------------------------------------------------------------------|
C|--12-13-12-12-0-0-10-12---13-12-0-0-10-13-12-0---12-13-12-12-0-0-10-13---13-13-10-10-10-10-11-11|

You have to play this three times.



Then:

D|------------------------------------------------------------------------------------------------|
A|------------------------------------------------------------------------------------------------|
F|------------------------------------------------------------------------------------------------|
C|------------------------------------------------------------------------------------------------|
G|------------------------------------------------------------------------------------------------|
C|--12-13-12-12-0-0-10-12---13-12-0-0-10-13-12-0---12-13-12-12-0-0-10-13---13-13-10-10-10-10-11-11|


D|------------------------------------------------------------------------------------|
A|------------------------------------------------------------------------------------|
F|------------------------------------------------------------------------------------|
C|------------------------------------------------------------------------------------|
G|------------------------------------------------------------------------------------|
C|--12-13-12-12-0-0-10-12---13-12-0-0-10-13-12-0---3-5-5-5-3-5-5-5---3-5-5-5-3-5-5-5--|

Played Twice.



D|------------------------------------------------------------------------------------------------|
A|------------------------------------------------------------------------------------------------|
F|------------------------------------------------------------------------------------------------|
C|------------------------------------------------------------------------------------------------|
G|------------------------------------------------------------------------------------------------|
C|--12-13-12-12-0-0-10-12---13-12-0-0-10-13-12-0---12-13-12-12-0-0-10-13---13-13-10-10-10-10-11-11|

Played Palm-Muted.


D|------------------------------------------------------------------------------------------------|
A|------------------------------------------------------------------------------------------------|
F|------------------------------------------------------------------------------------------------|
C|------------------------------------------------------------------------------------------------|
G|------------------------------------------------------------------------------------------------|
C|--12-13-12-12-0-0-10-12---13-12-0-0-10-13-12-0---12-13-12-12-0-0-10-13---13-13-10-10-10-10-11-11|

Played Three Times.



Then:


D|------------------------------------------------------------------------------------------------|
A|------------------------------------------------------------------------------------------------|
F|------------------------------------------------------------------------------------------------|
C|------------------------------------------------------------------------------------------------|
G|------------------------------------------------------------------------------------------------|
C|--12-13-12-12-0-0-10-12---13-12-0-0-10-13-12-0---12-13-12-12-0-0-10-13---13-13-10-10-10-10-11-11|


D|------------------------------------------------------------------------------------|
A|------------------------------------------------------------------------------------|
F|------------------------------------------------------------------------------------|
C|------------------------------------------------------------------------------------|
G|------------------------------------------------------------------------------------|
C|--12-13-12-12-0-0-10-12---13-12-0-0-10-13-12-0---3-5-5-5-3-5-5-5---3-5-5-5-3-5-5-5--|

Played Twice.



D|---------------------------------|
A|---------------------------------|
F|---------------------------------|
C|0h1---------0h1---------0h1------|
G|0h1-0-0-0-0-0h1-0-0-0-0-0h1-0-0--|
C|0h1-0-0-0-0-0h1-0-0-0-0-0h1-0-0--|
      * * * *     * * * *     * *

Played Three Times.

D|--------------------------------------|
A|--------------------------------------|
F|--------------------------------------|
C|--3-5-5-5--3-5-5-5--3-5-5-5--3-5-5-5--|
G|--3-5-5-5--3-5-5-5--3-5-5-5--3-5-5-5--|
C|--3-5-5-5--3-5-5-5--3-5-5-5--3-5-5-5--|


D|-----------------------------------------------|
A|-----------------------------------------------|
F|-----------------------------------------------|
C|--0--5--8----3--7----0--5--8----3--7-----------|
G|--0--5--8----3--7----0--5--8----3--7-----------|
C|--0--5--8----3--7----0--5--8----3--7---/19~----|


Then:

D|------------------------------------------------------------------------------------------------|
A|------------------------------------------------------------------------------------------------|
F|------------------------------------------------------------------------------------------------|
C|------------------------------------------------------------------------------------------------|
G|------------------------------------------------------------------------------------------------|
C|--12-13-12-12-0-0-10-12---13-12-0-0-10-13-12-0---12-13-12-12-0-0-10-13---13-13-10-10-10-10-11-11|


D|------------------------------------------------------------------------------------|
A|------------------------------------------------------------------------------------|
F|------------------------------------------------------------------------------------|
C|------------------------------------------------------------------------------------|
G|------------------------------------------------------------------------------------|
C|--12-13-12-12-0-0-10-12---13-12-0-0-10-13-12-0---3-5-5-5-3-5-5-5---3-5-5-5-3-5-5-5--|

Played Four Times.


D|-------------|
A|-------------|
F|-------------|
C|-------------|
G|-------------|
C|--/12~-12~\--|
Tap to rate this tab
# A B C D E F G H I J K L M N O P Q R S T U V W X Y Z