Song name
# A B C D E F G H I J K L M N O P Q R S T U V W X Y Z

Rammstein - Feuer Frei tab

Rammstein " Feuer Frei! "
Album: Mutter
Transcribed by: Rob Schram (shortbusofdoom3.16@hotmail.com)
Date: May 12, 2007


Tuning: Drop D (DADGBE)

I got some of the parts with how many times to repeat, as for the others, you're going 
have to play along with the song to get it.

Synth arr. for Guitar.
Intro
e|-----------------5-6------------10--------------------------------------|
B|-6-8-------------------------------------10-------11-10-8----8----------|
G|-------------------------------------7--------------------10------------|
D|-------------5-------8------8------7---7------7-------------------------|
A|-----10----5---3----------8---8-------------7---7-----------------10----|
D|--------5--------------8---------------------------------------12----12-|


e|---------------------------|
B|---------------------------|
G|-3------let ring-----------|
D|-3-------------------------|
A|-1-------------------------|
D|---------------------------|

e|-------------------------|
B|-------------------------|
G|-------------------------|
D|-5h6-5h6-5h6-5h6-888-9---|
A|-------------------------|
D|-------------------------|


e|-------------------------|
B|-------------------------|
G|-------------------------|
D|-5h6-5h6-5h6-5h6-888-9---|
A|-5h6-5h6-5h6-5h6-888-9---|
D|-5h6-5h6-5h6-5h6-888-9---|

Verse

e|-------------|
B|-------------|
G|-------------|
D|--------888-9|
A|--------888-9|
D|--------888-9|

Chorus

e|--------------------------------------------------------|
B|--------------------------------------------------------|
G|-------------------------------------------------7-5-3--|
D|-5h6-5h6-5h6-5h6-888-9---5h6-5h6-5h6-5h6-888-9---7-5-3--|
A|-5h6-5h6-5h6-5h6-888-9---5h6-5h6-5h6-5h6-888-9---5-3-1--|
D|-5h6-5h6-5h6-5h6-888-9---5h6-5h6-5h6-5h6-888-9----------|

e|----------------------           ---------|
B|----------------------           ---------|
G|----------------------  x3 then  ---7-5-3-|
D|-5h6-5h6-5h6-5h6-888-9           ---7-5-3-|
A|-5h6-5h6-5h6-5h6-888-9           ---5-3-1-|
D|-5h6-5h6-5h6-5h6-888-9           ---------|

Solo

Rhythm
e|-----------------------|
B|-----------------------|
G|-----------------------|
D|-5h6-5h6-5h6-5h6-888-9-|
A|-5h6-5h6-5h6-5h6-888-9-|
D|-5h6-5h6-5h6-5h6-888-9-|


e|-----------------------|
B|-----------------------|
G|-----------------------|
D|-5h6-5h6-5h6-5h6-888-9-|
A|-----------------------|
D|-----------------------|

e|-----------------------|
B|-----------------------|
G|-----------------------|
D|-5h6-5h6-5h6-5h6-888-9-|
A|-----------------888-9-|
D|-----------------888-9-|

e|--------------------------------------------------------|
B|--------------------------------------------------------|
G|-------------------------------------------------7-5-3--|
D|-5h6-5h6-5h6-5h6-888-9---5h6-5h6-5h6-5h6-888-9---7-5-3--|
A|-5h6-5h6-5h6-5h6-888-9---5h6-5h6-5h6-5h6-888-9---5-3-1--|
D|-5h6-5h6-5h6-5h6-888-9---5h6-5h6-5h6-5h6-888-9----------|

e|-------------------------|
B|-------------------------|
G|-------------------------|
D|-5h6-5h6-5h6-5h6-888-9---|
A|-5h6-5h6-5h6-5h6-888-9---|
D|-5h6-5h6-5h6-5h6-888-9---|


e|-------|
B|-------|
G|-7-5-3-|
D|-7-5-3-|
A|-5-3-1-|
D|-------|

e|-------------------------|
B|-------------------------|
G|-------------------------|
D|-5h6-5h6-5h6-5h6-888-9---|
A|-5h6-5h6-5h6-5h6-888-9---|
D|-5h6-5h6-5h6-5h6-888-9---|


e|-------|
B|-------|
G|-7-5-3-|  x3
D|-7-5-3-|
A|-5-3-1-|
D|-------|
Tap to rate this tab
# A B C D E F G H I J K L M N O P Q R S T U V W X Y Z