Song name
# A B C D E F G H I J K L M N O P Q R S T U V W X Y Z

Rammstein - Klavier tab

Help us improve GuitareTab! Take a short survey!
Rammstein-Klavier
Album- Sehnsucht

Standard Tuning

verse: 3x's clean
----------------------------------------------|
----------------------------------------------|
------14----14----12---------10----12----9----|
---10----10----10----10---10----10----10---10-|
-0----------------------0---------------------|
----------------------------------------------|

--------------------------------------------|
--------------------------------------------|
------14---------12---------10---------9----|
---10----10---10----10---10----10---10---10-|
-0----------0----------0----------0---------|
--------------------------------------------|

----------------------------------------------|
----------------------------------------------|
------12----12----10---------10----12----9----|
---10----10----10----10---10----10----10---10-|
-8----------------------8---------------------|
----------------------------------------------|

-----------------------------------|
-----------------------------------|
-----12-------11-------9-------9---|
---9----9---9----9---9---9---9---9-|
-7--------7--------7-------7-------|
-----------------------------------|

chorus: 1x distorted (strum each note fast)
-------------------------------|
-------------------------------|
-3---7---3---7---3---7---8---7-|
-x---x---x---x---x---x---x---x-|
-1---5---1---5---1---5---6---5-|
-------------------------------|

bridge between chorus and 2nd verse: 2x's clean
----------------------------------------------|
----------------------------------------------|
------14----14----12---------10----12----9----|
---10----10----10----10---10----10----10---10-|
-0----------------------0---------------------|
----------------------------------------------|

verse: 2x's clean
----------------------------------------------|
----------------------------------------------|
------14----14----12---------10----12----9----|
---10----10----10----10---10----10----10---10-|
-0----------------------0---------------------|
----------------------------------------------|

--------------------------------------------|
--------------------------------------------|
------14---------12---------10---------9----|
---10----10---10----10---10----10---10---10-|
-0----------0----------0----------0---------|
--------------------------------------------|

----------------------------------------------|
----------------------------------------------|
------12----12----10---------10----12----9----|
---10----10----10----10---10----10----10---10-|
-8----------------------8---------------------|
----------------------------------------------|

-----------------------------------|
-----------------------------------|
-----12-------11-------9-------9---|
---9----9---9----9---9---9---9---9-|
-7--------7--------7-------7-------|
-----------------------------------|

chorus: 2x's distorted
-------------------------------|
-------------------------------|
-3---7---3---7---3---7---8---7-|
-x---x---x---x---x---x---x---x-|
-1---5---1---5---1---5---6---5-|
-------------------------------|


interlude: 4x's distorted (same strum as chorus)
--------------------------------------|
--------------------------------------|
-16---14---9\16---14---16\17---14---9-|
--x----x---x\-x----x----x\-x----x---x-|
-14---12---7\14---12---14\15---12---7-|
--------------------------------------|

chorus: 2x's distorted
-------------------------------|
-------------------------------|
-3---7---3---7---3---7---8---7-|
-x---x---x---x---x---x---x---x-|
-1---5---1---5---1---5---6---5-|
-------------------------------|

outro: 2x clean
----------------------------------------------|
----------------------------------------------|
------14----14----12---------10----12----9----|
---10----10----10----10---10----10----10---10-|
-0----------------------0---------------------|
----------------------------------------------|

--------------------------------------------|
--------------------------------------------|
------14---------12---------10---------9----|
---10----10---10----10---10----10---10---10-|
-0----------0----------0----------0---------|
--------------------------------------------|

----------------------------------------------|
----------------------------------------------|
------12----12----10---------10----12----9----|
---10----10----10----10---10----10----10---10-|
-8----------------------8---------------------|
----------------------------------------------|

-----------------------------------|
-----------------------------------|
-----12-------11-------9-------9---|
---9----9---9----9---9---9---9---9-|
-7--------7--------7-------7-------|
-----------------------------------|
Related for Klavier tab