Guitaretab - guitar tabs
Song name
# A B C D E F G H I J K L M N O P Q R S T U V W X Y Z

Rammstein - Das Alte Leid tab

Rammstein - Das Alte Leid guitar tab

Main riff
e|---------------------------------|   |-----------------------------|
B|---------------------------------|   |-----------------------------|
G|*-------------------------------*|   |-----------------------------|
D|*-2-4---2-4-----4---2-4/7-7---2-*|x7 |--2-4---2-4-----4---2-4/7-7--|
A|--2-4---2-4-----4---2-4/7-7---2--|   |--2-4---2-4-----4---2-4/7-7--|
D|--2-4---2-4---4-4---2-4/7-7---2--|   |--2-4---2-4---4-4---2-4/7-7--|
pm              .                                     .


Verse
e|--------------------|   |----------|   e|--------------------|
B|--------------------|   |----------|   B|--------------------|
G|*------------------*|   |----------|   G|*------------------*|
D|*------------------*|x4 |----------|   D|*------------------*|x4
A|--2-2------2-2-2-2--|   |----------|   A|--2-2------2-2-2-2--|
D|--2-2------2-2-2-2--|   |--5^b7r5--|   D|--2-2------2-2-2-2--|
pm  . .      . . . .                         . .      . . . .


Bridges (1:57) & (3:54) (the last lines of the verses at those times)
e|-------------------------|
B|-------------------------|
G|-------------------------|
D|------------2-(sustain)--|
A|--2-2---2-2-2-(sustain)--|
D|--2-2---2-2-2-(sustain)--|
pm  . .   . .

[ Tab from: http://www.guitaretab.com/r/rammstein/33740.html ]
Quiet part (3:11)
e|-------------------|   |-----------------------------|
B|-------------------|   |-----------------------------|
G|*-----------------*|   |-----------------------------|
D|*-----------------*|x3 |----------------4-(sustain)--|
A|--2-4---2-4---2-4--|   |--2-4---2-4---2-4-(sustain)--|
D|--2-4---2-4---2-4--|   |--2-4---2-4---2-4-(sustain)--|
pm  . .   . .   . .         . .   . .   .


Solo
[ With WAH ]
Fast rate (4:01 to 4:11)
e|----------------------------|
B|--h17p14h17p14h17p14h17p14--|
G|*--------------------------*|
D|*--------------------------*|
A|----------------------------|
D|----------------------------|


Moderate rate (4:11)
e|--------------------------------------------------|
B|--h14p12h14p12h14p12h14p12h14p12h14p12h14p12------|
G|*--------------------------------------------11~--|
D|*-------------------------------------------------|
A|--------------------------------------------------|
D|--------------------------------------------------|


e|--------------------------------------------------------|
B|--h14p12h14p12h14p12h14p12h14p12h14p12h14p12------------|
G|-------------------------------------------------------*|
D|---------------------------------------------11h12p11~-*|
A|--------------------------------------------------------|
D|--------------------------------------------------------|


End
e|-----------|
B|-----------|
G|-----------|
D|--9h11~~~--|
A|-----------|
D|-----------|


pm . -palm mute
h - hammer on
p - pull off
b - bend
^ - pinch harmonic
/ - slide up
\ - slide down
r - release
Related for Das Alte Leid tab
Advertisement will be closed in 10 seconds