Song name
# A B C D E F G H I J K L M N O P Q R S T U V W X Y Z

Rammstein - Ich Tu Dir Weh tab

Ich Tu Dir Weh
Rammstein
Liebe Ist Für Alle Da
2009

Tabbed by: CruzRN

Tuning: Drop D (DADGBE)

Hello everyone.

I've been looking for the keys intro tab for this song on guitar.
Although I did my best to get it I couldn't find it anywhere. 
So I tabbed it myself to guitar, using the keys tab, for you guys.

E----------------------|--------------------|
B-----------4----------|-----------4--------|
G-----0--3-----3--0----|--------------------|
D--1-------------------|-----4--6-----6--4--|
A----------------------|--4-----------------|
D----------------------|--------------------|

E----------------------|--------------------|
B-----------3----------|-----------3--------|
G-----0--2-----2--0----|-----0--2-----2--0--|
D--0-------------------|--0-----------------|
A----------------------|--------------------|
D----------------------|--------------------|

E----------------------|--------------------|
B-----------4----------|-----------4--------|
G-----0--3-----3--0----|--------------------|
D--4-------------------|-----4--6-----6--4--|
A----------------------|--------------------|
D----------------------|--6-----------------|

E----------------------|--------------------|
B-----------3----------|-----------3--------|
G-----0--2-----2--0----|-----0--2-----2--0--|
D--0-------------------|--0-----------------|
A----------------------|--------------------|
D----------------------|--------------------|

Repeat three more times.

This is my first tab.
Any comments, suggestions, and messages, please send them to johnnyrhcpa7x@yahoo.com.ar.
Enjoy :)
Tap to rate this tab
# A B C D E F G H I J K L M N O P Q R S T U V W X Y Z