Song name
# A B C D E F G H I J K L M N O P Q R S T U V W X Y Z

Rammstein - Rosenrot tab

-----------------------------------------------------------------------------
                            ROSENROT - Rammstein
-----------------------------------------------------------------------------

Tabbed by: teo.rockgirl@yahoo.com
E-mail: teo.rockgirl@yahoo.com

Tunning : drop C


Intro :

D|----------------------------------------------------------------|
A|----------------------------------------------------------------|
F|----------------------------------------------------------------|
C|--12--12--12--12--12--12--12--12--8--8--8--8--8--8--8--8--------|
G|--12--12--12--12--12--12--12--12--8--8--8--8--8--8--8--8--------|
C|--12--12--12--12--12--12--12--12--8--8--8--8--8--8--8--8--------|

D|----------------------------------------------------------------|
A|----------------------------------------------------------------|
F|----------------------------------------------------------------|
C|--12--12--12--12--12--12--12--12--8--8--8--8--8--15--15--15-----|
G|--12--12--12--12--12--12--12--12--8--8--8--8--8--15--15--15-----|
C|--12--12--12--12--12--12--12--12--8--8--8--8--8--15--15--15-----|




The verse is like the intro :


D|----------------------------------------------------------------|
A|----------------------------------------------------------------|
F|----------------------------------------------------------------|
C|--12--12--12--12--12--12--12--12--8--8--8--8--8--8--8--8--------|
G|--12--12--12--12--12--12--12--12--8--8--8--8--8--8--8--8--------|
C|--12--12--12--12--12--12--12--12--8--8--8--8--8--8--8--8--------|
  " Sah ein Mädchen ein Röslein stehen "

D|----------------------------------------------------------------|
A|----------------------------------------------------------------|
F|----------------------------------------------------------------|
C|--12--12--12--12--12--12--12--12--8--8--8--8--8--15--15--15-----|
G|--12--12--12--12--12--12--12--12--8--8--8--8--8--15--15--15-----|
C|--12--12--12--12--12--12--12--12--8--8--8--8--8--15--15--15-----|
  " Blühte dort in lichten Höhen "

D|----------------------------------------------------------------|
A|----------------------------------------------------------------|
F|----------------------------------------------------------------|
C|--12--12--12--12--12--12--12--12--8--8--8--8--8--8--8--8--------|
G|--12--12--12--12--12--12--12--12--8--8--8--8--8--8--8--8--------|
C|--12--12--12--12--12--12--12--12--8--8--8--8--8--8--8--8--------|
  " Sprach sie ihren Liebsten an "

D|----------------------------------------------------------------|
A|----------------------------------------------------------------|
F|----------------------------------------------------------------|
C|--12--12--12--12--12--12--12--12--8--8--8--8--8--15--15--15-----|
G|--12--12--12--12--12--12--12--12--8--8--8--8--8--15--15--15-----|
C|--12--12--12--12--12--12--12--12--8--8--8--8--8--15--15--15-----|
  " Ob er es ihr steigen kann "




The pre-chorus is like the verse :


D|----------------------------------------------------------------|
A|----------------------------------------------------------------|
F|----------------------------------------------------------------|
C|--12--12--12--12--12--12--12--12--8--8--8--8--8--8--8--8--------|
G|--12--12--12--12--12--12--12--12--8--8--8--8--8--8--8--8--------|
C|--12--12--12--12--12--12--12--12--8--8--8--8--8--8--8--8--------|
  " Sie will es und so ist es fein "

D|----------------------------------------------------------------|
A|----------------------------------------------------------------|
F|----------------------------------------------------------------|
C|--12--12--12--12--12--12--12--12--8--8--8--8--8--15--15--15-----|
G|--12--12--12--12--12--12--12--12--8--8--8--8--8--15--15--15-----|
C|--12--12--12--12--12--12--12--12--8--8--8--8--8--15--15--15-----|
  " So war es und so wird es immer sein "

D|----------------------------------------------------------------|
A|----------------------------------------------------------------|
F|----------------------------------------------------------------|
C|--12--12--12--12--12--12--12--12--8--8--8--8--8--8--8--8--------|
G|--12--12--12--12--12--12--12--12--8--8--8--8--8--8--8--8--------|
C|--12--12--12--12--12--12--12--12--8--8--8--8--8--8--8--8--------|
  " Sie will es und so ist es Brauch "

D|----------------------------------------------------------------|
A|----------------------------------------------------------------|
F|----------------------------------------------------------------|
C|--12--12--12--12--12--12--12--12--8--8--8--8--8--15--15--15-----|
G|--12--12--12--12--12--12--12--12--8--8--8--8--8--15--15--15-----|
C|--12--12--12--12--12--12--12--12--8--8--8--8--8--15--15--15-----|
  " Was sie will bekommt sie auch "



Chorus :


D|---------------------------------------------------------------|
A|---------------------------------------------------------------|
F|---------------------------------------------------------------|
C|--0--0--0--0--0--0--0--0--8--8--8--8--8--8--8--8---------------|
G|--0--0--0--0--0--0--0--0--8--8--8--8--8--8--8--8---------------|
C|--0--0--0--0--0--0--0--0--8--8--8--8--8--8--8--8---------------|
  " Tiefe Brunnen muss man graben "

D|---------------------------------------------------------------|
A|---------------------------------------------------------------|
F|---------------------------------------------------------------|
C|--0--0--0--0--0--0--0--0--8--8--8--8--8--3--3--3---------------|
G|--0--0--0--0--0--0--0--0--8--8--8--8--8--3--3--3---------------|
C|--0--0--0--0--0--0--0--0--8--8--8--8--8--3--3--3---------------|
  " Wenn man klares Wasser will "


D|---------------------------------------------------------------|
A|---------------------------------------------------------------|
F|---------------------------------------------------------------|
C|--0--0--0--0--0--0--0--0--8--8--8--8--8--8--8--8---------------|
G|--0--0--0--0--0--0--0--0--8--8--8--8--8--8--8--8---------------|
C|--0--0--0--0--0--0--0--0--8--8--8--8--8--8--8--8---------------|
  " Rosenrot oh Rosenrot "

D|---------------------------------------------------------------|
A|---------------------------------------------------------------|
F|---------------------------------------------------------------|
C|--0--0--0--0--0--0--0--0--8--8--8--8--8--3--3--3---------------|
G|--0--0--0--0--0--0--0--0--8--8--8--8--8--3--3--3---------------|
C|--0--0--0--0--0--0--0--0--8--8--8--8--8--3--3--3---------------|
  " Tiefe Wasser sind nicht still "




Bridge :

D|---------------------------------------------------------------|
A|---------------------------------------------------------------|
F|---------------------------------------------------------------|
C|12-10-0-12-10-0-12-10-13-10-0-13-10-0-13-10-12-10-0-12-10-0-12-|
G|12-10-0-12-10-0-12-10-13-10-0-13-10-0-13-10-12-10-0-12-10-0-12-|
C|12-10-0-12-10-0-12-10-13-10-0-13-10-0-13-10-12-10-0-12-10-0-12-|

D|------------------------|
A|------------------------|
F|------------------------|
C|10-10-8-0-10-8-0-10-8-12|
G|10-10-8-0-10-8-0-10-8-12|
C|10-10-8-0-10-8-0-10-8-12|

The end is like the bridge .


*******************************

The order is :

   >Intro
   >Verse
   >Pre-chorus
   >Chorus
   >Verse
   >Pre-chorus
   >Chorus x2
   >Bridge x2
   >Verse
   >Pre-chorus
   >Chorus x2
   >End

*******************************
Tap to rate this tab
 
# A B C D E F G H I J K L M N O P Q R S T U V W X Y Z