Song name
# A B C D E F G H I J K L M N O P Q R S T U V W X Y Z

Rammstein - Mutter tab

Hello gutarists! I am bringing you the correct version of song Mutter by great
German band Rammstein. I have made it for one guitar in standart tuning without capo. 
Watch me playing it: http://youtu.be/Pz8uH5tgFNo

Intro, Verse - clean tone
Chorus, Bridge - distorted


Intro
                Emi                     C                 C
e|-----------------7----------------------7-----------------7-------|
B|------------8-------8-----8-----------7---7-------------7---7-----|
G|---------9-----9-------9------------8-------8---------8-------8---|
D|------9---------------------------9-----------------9-------------|
A|---7----------------------------9-----------------9---------------|
E|------------------------------7-----------------7-----------------|


Verse x4 (same as intro)
               
e|-----------------7----------------------7-----------------7-------|
B|------------8-------8-----8-----------7---7-------------7---7-----|
G|---------9-----9-------9------------8-------8---------8-------8---|
D|------9---------------------------9-----------------9-------------|
A|---7----------------------------9-----------------9---------------|
E|------------------------------7-----------------7-----------------|


Chorus x2

e|---------------------------------------------------------------|
B|---------------------------------------------------------------|
G|-----/9-----11-12-12/16-----16-14-16-14\11-----11-11-12-11-----|
D|---------------------------------------------------------------|
A|---------------------------------------------------------------|
E|---------------------------------------------------------------|


Verse x4

e|-----------------7----------------------7-----------------7-------|
B|------------8-------8-----8-----------7---7-------------7---7-----|
G|---------9-----9-------9------------8-------8---------8-------8---|
D|------9---------------------------9-----------------9-------------|
A|---7----------------------------9-----------------9---------------|
E|------------------------------7-----------------7-----------------|


Chorus x2

e|---------------------------------------------------------------|
B|---------------------------------------------------------------|
G|-----/9-----11-12-12/16-----16-14-16-14\11-----11-11-12-11-----|
D|---------------------------------------------------------------|
A|---------------------------------------------------------------|
E|---------------------------------------------------------------|


Bridge

e|--------------------------------|
B|--------------------------------|
G|----3----5--2------3----5--3----|
D|----3----5--2------3----5--3----|
A|----5----7--4------5----7--5----|
D|--------------------------------|


Now comes: Mutter! Mutter! Mutter! MUTTEEEEEEEEEER!
Moving 2 frets higher.


High Chorus x2

e|----------------------------------------------------------------|
B|----------------------------------------------------------------|
G|-----/11-----13-14-14/18-----18-16-18-16\13-----13-13-14-13-----|
D|----------------------------------------------------------------|
A|----------------------------------------------------------------|
E|----------------------------------------------------------------|


High Bridge 

e|--------------------------------|
B|--------------------------------|
G|----5----7--4------5----7--4----|
D|----5----7--4------5----7--4----|
A|----7----9--6------7----9--6----|
D|--------------------------------|


High Chorus x4

e|----------------------------------------------------------------|
B|----------------------------------------------------------------|
G|-----/11-----13-14-14/18-----18-16-18-16\13-----13-13-14-13-----|
D|----------------------------------------------------------------|
A|----------------------------------------------------------------|
E|----------------------------------------------------------------|


Legend:
 / slide up
 \ slide down
 b bend
 ^ hammer on/pull of
 ~ vibrato
 t tap
Tap to rate this tab
# A B C D E F G H I J K L M N O P Q R S T U V W X Y Z