Guitaretab - guitar tabs
Song name
# A B C D E F G H I J K L M N O P Q R S T U V W X Y Z

Rammstein - Eifersucht tab

Band:    Rammstein
Album:   Sehnsucht
Song:    Eifersucht
Tabber:  Slashdotcom//

Drop tunning i go C

Not Rammsteins most popular song but i think its pretty good for its age.

Bass Riff 4 Git
|--------------------------------|
|--------------------------------|
|--------------------------------|3X
|-2-222-2--2-4-5---2-22-2-2-0----|
|-----------------------------2--|
|--------------------------------|

Main Riff
|----------------|
|----------------|
|----------------|
|-2-2-332-2-2345-|16X
|-2-2-332-2-2345-|
|-2-2-332-2-2345-|
  . . ... . ...


|-----------------|
|-----------------|
|-----------------|1X
|-----------------|
|-0-0-2/3-0--02/3-|
|-0-0-2/3-0--02/3-|
  .          .

Bass 4 Git
|-----------------------|
|-----------------------|
|-----------------------|1X
|-0-00-0-2-3--0-00--0---|
|---------------------3-|
|-----------------------|

|-----------------|
|-----------------|
|-----------------|1X
|-----------------|
|-0-0-2/3-0--02/3-|
|-0-0-2/3-0--02/3-|
  .          .

Bass 4 Git
|--------------------------|
|--------------------------|
|--------------------------|1X
|-0-00-0-2-3--0-00--0-2/3--|
|---------------------2/3--|
|---------------------2/3--|

Main Riff
|----------------|
|----------------|
|----------------|
|-2-2-332-2-2345-|8X
|-2-2-332-2-2345-|
|-2-2-332-2-2345-|
  . . ... . ...

|-----------------|
|-----------------|
|-----------------|1X
|-----------------|
|-0-0-2/3-0--02/3-|
|-0-0-2/3-0--02/3-|
  .          .
[ Tab from: http://www.guitaretab.com/r/rammstein/43045.html ]
Bass 4 Git
|-----------------------|
|-----------------------|
|-----------------------|1X
|-0-00-0-2-3--0-00--0---|
|---------------------3-|
|-----------------------|

|-----------------|
|-----------------|
|-----------------|1X
|-----------------|
|-0-0-2/3-0--02/3-|
|-0-0-2/3-0--02/3-|
  .          .

Bass 4 Git
|--------------------------|
|--------------------------|
|--------------------------|1X
|-0-00-0-2-3--0-00--0-2/3--|
|---------------------2/3--|
|---------------------2/3--|


Main Riff
|----------------|
|----------------|
|----------------|
|-2-2-332-2-2345-|16X
|-2-2-332-2-2345-|
|-2-2-332-2-2345-|
  . . ... . ...

Synth

|-------------------------|
|-------------------------|
|-------------------------|1X
|-------------------------|
|-0-0-2/3-0--02-3-0--02/3-|
|-0-0-2/3-0--02-3-0--02/3-|
  .          .    .

Bass 4 Git
|-----------------------|
|-----------------------|
|-----------------------|1X
|-0-00-0-2-3--0-00--0---|
|---------------------3-|
|-----------------------|

|-----------------|
|-----------------|
|-----------------|1X
|-----------------|
|-0-0-2/3-0--02/3-|
|-0-0-2/3-0--02/3-|
  .          .

Bass 4 Git
|--------------------------|
|--------------------------|
|--------------------------|1X
|-0-00-0-2-3--0-00--0-2/3--|
|---------------------2/3--|
|---------------------2/3--|


Main Riff
|----------------|
|----------------|
|----------------|
|-2-2-332-2-2345-|24X
|-2-2-332-2-2345-|
|-2-2-332-2-2345-|
  . . ... . ...

Go on give it 5*
Related for Eifersucht tab
Advertisement will be closed in 10 seconds