Song name
# A B C D E F G H I J K L M N O P Q R S T U V W X Y Z

Rammstein - Laichzeit tab

Help us improve GuitareTab! Take a short survey!
Song : Laichzeit
Artist : Rammstein
Tabbed by : Valenten
Email : paleontologia@free.fr
Tuning : Drop D (You can easily convert it to normal tuning)

Symbols :
pm.... => palm mute
U => let ring a bit more time


0:14


|---------------------------|---------------------------|
|---------------------------|---------------------------|
|------------------------x7-|---------------------------|
|---------------------------|-----------------2-5-3-----|
|-2-2-2--2-2-2--2-2-5-3-----|-2-2-2--2-2-2--2-2-5-3-----|
|-2-2-2--2-2-2--2-2-5-3-----|-2-2-2--2-2-2--2-2-5-3-----|
  pm. . . . . . . . . . . . . . . . . . . . .


|---------------------------|---------------------------|
|---------------------------|---------------------------|
|------------------------x7-|---------------------------|
|---------------------------|-----------------2-5-3-----|
|-2-2-2--2-2-2--2-2-5-3-----|-2-2-2--2-2-2--2-2-5-3-2---|
|-2-2-2--2-2-2--2-2-5-3-----|-2-2-2--2-2-2--2-2-5-3-2---|
  pm. . . . . . . . . . . . . . . . . . . . .     U


0:57


|---------------------------|---------------------------|
|---------------------------|---------------------------|
|------------------------x7-|---------------------------|
|---------------------------|-----------------2-5-3-----|
|-2-2-2--2-2-2--2-2-5-3-----|-2-2-2--2-2-2--2-2-5-3-----|
|-2-2-2--2-2-2--2-2-5-3-----|-2-2-2--2-2-2--2-2-5-3-----|
  pm. . . . . . . . . . . . . . . . . . . . .


1:27


|---------------------------|---------------------------|
|---------------------------|---------------------------|
|------------------------x7-|---------------------------|
|---------------------------|-----------------2-5-3-----|
|-2-2-2--2-2-2--2-2-5-3-----|-2-2-2--2-2-2--2-2-5-3-----|
|-2-2-2--2-2-2--2-2-5-3-----|-2-2-2--2-2-2--2-2-5-3-----|
  pm. . . . . . . . . . . . . . . . . . . . .


|---------------------------|---------------------------|
|---------------------------|---------------------------|
|------------------------x7-|---------------------------|
|---------------------------|-----------------2-5-3-----|
|-2-2-2--2-2-2--2-2-5-3-----|-2-2-2--2-2-2--2-2-5-3-----|
|-2-2-2--2-2-2--2-2-5-3-----|-2-2-2--2-2-2--2-2-5-3-----|
  pm. . . . . . . . . . . . . . . . . . . . .     


|------------------|------------------|------------------|-----------------|
|------------------|------------------|------------------|-----------------|
|------------------|------------------|------------------|-----------------|
|-5--5-5--5--5-8-6-|-5--5-5--5--5-8-6-|-5--5-5--5--5-8-6-|-5--5-5-3-5------|
|-5--5-5--5--5-8-6-|-5--5-5--5--5-8-6-|-5--5-5--5--5-8-6-|-5--5-5-3-5------|
|-5--5-5--5--5-8-6-|-5--5-5--5--5-8-6-|-5--5-5--5--5-8-6-|-5--5-5-3-5------|

|------------------|------------------|------------------|------------------|
|------------------|------------------|------------------|------------------|
|------------------|------------------|------------------|------------------|
|-5--5-5--5--5-8-6-|-5--5-5--5--5-8-6-|-5--5-5--5--5-8-6-|-33333333-3-3-3-3-|
|-5--5-5--5--5-8-6-|-5--5-5--5--5-8-6-|-5--5-5--5--5-8-6-|-33333333-3-3-3-3-|
|-5--5-5--5--5-8-6-|-5--5-5--5--5-8-6-|-5--5-5--5--5-8-6-|-33333333-3-3-3-3-|
                                                           pm. . . . . . . .
(listen to the song to get the rythm of the end of this figure)


2:32


|---------------------------|---------------------------|
|---------------------------|---------------------------|
|------------------------x7-|---------------------------|
|---------------------------|-----------------2-5-3-----|
|-2-2-2--2-2-2--2-2-5-3-----|-2-2-2--2-2-2--2-2-5-3-----|
|-2-2-2--2-2-2--2-2-5-3-----|-2-2-2--2-2-2--2-2-5-3-----|
  pm. . . . . . . . . . . . . . . . . . . . .


|---------------------------|---------------------------|
|---------------------------|---------------------------|
|------------------------x7-|---------------------------|
|---------------------------|-----------------2-5-3-----|
|-2-2-2--2-2-2--2-2-5-3-----|-2-2-2--2-2-2--2-2-5-3-----|
|-2-2-2--2-2-2--2-2-5-3-----|-2-2-2--2-2-2--2-2-5-3-----|
  pm. . . . . . . . . . . . . . . . . . . . .     

|---------------------------|---------------------------|
|---------------------------|---------------------------|
|------------------------x7-|---------------------------|
|---------------------------|-----------------2-5-3-----|
|-2-2-2--2-2-2--2-2-5-3-----|-2-2-2--2-2-2--2-2-5-3-----|
|-2-2-2--2-2-2--2-2-5-3-----|-2-2-2--2-2-2--2-2-5-3-----|
  pm. . . . . . . . . . . . . . . . . . . . .     


|------------------|------------------|------------------|-----------------|
|------------------|------------------|------------------|-----------------|
|------------------|------------------|------------------|-----------------|
|-5--5-5--5--5-8-6-|-5--5-5--5--5-8-6-|-5--5-5--5--5-8-6-|-5--5-5-3-5------|
|-5--5-5--5--5-8-6-|-5--5-5--5--5-8-6-|-5--5-5--5--5-8-6-|-5--5-5-3-5------|
|-5--5-5--5--5-8-6-|-5--5-5--5--5-8-6-|-5--5-5--5--5-8-6-|-5--5-5-3-5------|

|------------------|------------------|------------------|------------------|
|------------------|------------------|------------------|------------------|
|------------------|------------------|------------------|------------------|
|-5--5-5--5--5-8-6-|-5--5-5--5--5-8-6-|-5--5-5--5--5-8-6-|-33333333-3-3-3-3-|
|-5--5-5--5--5-8-6-|-5--5-5--5--5-8-6-|-5--5-5--5--5-8-6-|-33333333-3-3-3-3-|
|-5--5-5--5--5-8-6-|-5--5-5--5--5-8-6-|-5--5-5--5--5-8-6-|-33333333-3-3-3-3-|
                                                           pm. . . . . . . .


3:44


|-----------------------|-----------------------|
|-----------------------|-----------------------|
|-----------------------|-----------------------|
|-----------------------|-----------------------|
|-2-2-2--2-2-2--2-2-5-3-|-2-2-2--2-2-2--2-2-5-3-|
|-2-2-2--2-2-2--2-2-5-3-|-2-2-2--2-2-2--2-2-5-3-|
  pm. . . . . . . . . . . . . . . . . . . . . .    

|-------------------|-------------------|
|-------------------|-------------------|
|-------------------|-------------------|
|-2--2-2--2-5-3-----|-2--2-2--2-5-3-----| 
|-2--2-2--2-5-3-----|-2--2-2--2-5-3-----|
|-2--2-2--2-5-3-----|-2--2-2--2-5-3-----|


|-----------------------|-----------------------|
|-----------------------|-----------------------|
|-----------------------|-----------------------|
|-----------------------|-----------------------|
|-2-2-2--2-2-2--2-2-5-3-|-2-2-2--2-2-2--2-2-5-3-|
|-2-2-2--2-2-2--2-2-5-3-|-2-2-2--2-2-2--2-2-5-3-|
  pm. . . . . . . . . . . . . . . . . . . . . .    

|-------------------|-------------------|
|-------------------|-------------------|
|-------------------|-------------------|
|-2--2-2--2-5-3-----|-2--2-2--2-5-3-----| 
|-2--2-2--2-5-3-----|-2--2-2--2-5-3-----|
|-2--2-2--2-5-3-----|-2--2-2--2-5-3-----|


|-----------------------|-----------------------|
|-----------------------|-----------------------|
|-----------------------|-----------------------|
|-----------------------|-----------------------|
|-2-2-2--2-2-2--2-2-5-3-|-2-2-2--2-2-2--2-2-5-3-|
|-2-2-2--2-2-2--2-2-5-3-|-2-2-2--2-2-2--2-2-5-3-|
  pm. . . . . . . . . . . . . . . . . . . . . .    

|-------------------|-------------------|
|-------------------|-------------------|
|-------------------|-------------------|
|-2--2-2--2-5-3-----|-2--2-2--2-5-3-----| 
|-2--2-2--2-5-3-----|-2--2-2--2-5-3-----|
|-2--2-2--2-5-3-----|-2--2-2--2-5-3-----|

Outro :


|-----------------------------------------------|
|-----------------------------------------------|
|-----------------------------------------------|
|-----------------------------------------------|
|-555-555--2--2--555-555--2--2--555-555-2--2--5-|
|-555-555--2--2--555-555--2--2--555-555-2--2--5-|
  pm. . . . . . . . . . . . . . . . . . . . . .	
Related for Laichzeit tab