Song name
# A B C D E F G H I J K L M N O P Q R S T U V W X Y Z

Rammstein - Weisses Fleisch tab

Band: Rammstein
Album: Herzeleid
Song Title: Weisses Fleisch
Tuning: D#, G#, C#, F#, A#, D#


Intro / After each chorus except for the last one  
d#|--------------------------------------------------------------------|  
A#|--------------------------------------------------------------------|  
F#|*-------------------------------------------------------------5^b7-*|  
C#|*-----4/5-----4/5-----4/5-----4/5-----4/5-----4/5-----4/5----------*|x2  
G#|------4/5-----4/5-----4/5-----4/5-----4/5-----4/5-----4/5-----------|  
D#|--2-2-2/3-2-2-2/3-2-2-2/3-2-2-2/3-2-2-2/3-2-2-2/3-2-2-2/3-2-2-------|  
pm   . .     . .     . .     . .     . .     . .     . .     . .  


Verse  
d#|------------------------------------|  
A#|------------------------------------|  
F#|*-----------------------------5^b7-*|  
C#|*-----4/5-----4/5-----4/5----------*|x2  
G#|------4/5-----4/5-----4/5-----------|  
D#|--2-2-2/3-2-2-2/3-2-2-2/3-2-2-------|  
pm   . .     . .     . .     . .  


After the verse, just before the 1st chorus  
d#|------------------------------------------------------------|  
A#|------------------------------------------------------------|  
F#|------------------------------5^b7--------------------------|  
C#|------4/5-----4/5-----4/5--------------4/5-----4/5----------|  
G#|------4/5-----4/5-----4/5--------------4/5-----4/5----------|  
D#|--2-2-2/3-2-2-2/3-2-2-2/3-2-2------2-2-2/3-2-2-2/3-2-2-2-2--|  
pm   . .     . .     . .     . .      . .     . .     . . . .   


1st chorus  
d#|-----------------------------------------------|  
A#|-----------------------------------------------|  
F#|-----------------------------------------------|  
C#|--5---2------7---5---4-------5---2------7---5--|  
G#|--5---2------7---5---4-------5---2------7---5--|  
D#|--3---0------5---3---2---2-2-3---0------5---3--|  
pm                          . .  


After the verse, just before the 2nd chorus  
d#|-------------------------------------------------------------|  
A#|-------------------------------------------------------------|  
F#|------------------------------4^b6---------------------------|  
C#|------4/5-----4/5-----4/5---------------4/5-----4/5-----4/5--|  
G#|------4/5-----4/5-----4/5---------------4/5-----4/5-----4/5--|  
D#|--2-2-2/3-2-2-2/3-2-2-2/3-2-2-------2-2-2/3-2-2-2/3-2-2-2/3--|  
pm   . .     . .     . .     . .       . .     . .     . .  


2nd chorus  
d#|---------------------------------------------------|  
A#|---------------------------------------------------|  
F#|---------------------------------------------------|  
C#|--5---2------7---5---4-------5---2------7---5---4--|  
G#|--5---2------7---5---4-------5---2------7---5---4--|  
D#|--3---0------5---3---2-----2-3---0------5---3---2--|  
pm                            .  


Solo  

1st guitar  
[ With some slight chorus and reverb ]  
d#|----------------------------------------------------------  
A#|--17b19-17b19-17b19-17b19-14-17b19-17b19-17b19r17p14------  
F#|-----------------------------------------------------16~--  
C#|----------------------------------------------------------  
G#|----------------------------------------------------------  
D#|----------------------------------------------------------  


d#|--------------------------------------------------14-17b19r17p14--  
A#|--17b19-17b19-17b19-17b19-14-17b19-17b19-17b19r17-----------------  
F#|------------------------------------------------------------------  
C#|------------------------------------------------------------------  
G#|------------------------------------------------------------------  
D#|------------------------------------------------------------------  


d#|----------------------------------------------------------  
A#|--17b19-17b19-17b19-17b19-14-17b19-17b19-17b19r17p14------  
F#|-----------------------------------------------------16~--  
C#|----------------------------------------------------------  
G#|----------------------------------------------------------  
D#|----------------------------------------------------------  


d#|--17p14----14-------------------------------------------------------------------------|  
A#|--------17----17p14-17p14----14-------------------------------------------------------|  
F#|--------------------------16----16p14-16b18~-16p14----14------------------------------|  
C#|---------------------------------------------------16----16p14-16p14----14------------|  
G#|---------------------------------------------------------------------16----16p14-16~--|  
D#|--------------------------------------------------------------------------------------|  


2nd guitar  
d#|-----------------|  
A#|-----------------|  
F#|*---------------*|  
C#|*---------------*|x16  
G#|-----------------|  
D#|--0---2---3---2--|  
pm   .   .   .   .  


Last chorus  
d#|-----------------------------------------------------------------  
A#|-----------------------------------------------------------------  
F#|-----------------------------------------------------------------  
C#|--5---2------7---5-------4----------5---2------7---5---4---------  
G#|--5---2------7---5-------4----------5---2------7---5---4---------  
D#|--3---0------5---3---3---2------2-2-3---0------5---3---2------2--  
pm                      .          . .                           .  


d#|------------------------------------------------------|  
A#|------------------------------------------------------|  
F#|------------------------------------------------------|  
C#|--5---2------7---5-------4----------5---2------7---5--|  
G#|--5---2------7---5-------4----------5---2------7---5--|  
D#|--3---0------5---3---3---2------2-2-3---0------5---3--|  
pm                      .          . .  


Final riff  
d#|-----------------------------------------------------|  
A#|-----------------------------------------------------|  
F#|-----------------------------------------------------|  
C#|--------------------------------------------------4--|  
G#|--------------------------------------------------4--|  
D#|--2---3---2---3---2---3---2---3---2---3---2---3---2--|  
pm   .   .   .   .   .   .   .   .   .   .   .   . 


A hard song to play :( =( I don't like the tuning!!! Bye 011 or 012 set strings fot this song!!!!

PM. = Palm Mute
H = Harmonics
P = Pull of
F = Fingerstyle
/ = Slide
Tap to rate this tab
 
# A B C D E F G H I J K L M N O P Q R S T U V W X Y Z