Song name
# A B C D E F G H I J K L M N O P Q R S T U V W X Y Z

Rammstein - Alter Mann tab

Intro / Verse
e|---------||-------------------------------------------------------------------|
B|---------||-------------------------------------------------------------------|
G|---------||*-----------------------------------------------------------------*|
D|---------||*---2-----2---2-----2-----2---2-----2-----2---2-----2-----0-2-3-2-*|
A|---------||----2-----2---2-----2-----2---2-----2-----2---2-----2-----0-2-3-2--|
D|--0-0-0--||--0-2-2-2-2-2-2-2-2-2-2-2-2-2-2-2-2-2-2-2-2-2-2-2-2-2-2-2-0-2-3-2--|
pm  . . .      .   . .   .   . .   . .   .   . .   . .   .   . .   . .


Chorus
e|-----------------------------------------------------------------------------------|
B|-----------------------------------------------------------------------------------|
G|*----------------------------------------------------------------------------------|
D|*----10-------10----10-------10-------10----10------9-----9---9-----9-----9---9----|
A|-----10-------10----10-------10-------10----10------9-----9---9-----9-----9---9----|
D|--10-10-10-10-10-10-10-10-10-10-10-10-10-10-10-10-9-9-9-9-9-9-9-9-9-9-9-9-9-9-9-9--|
pm   .     .  .     .     .  .     .  .     .     . .   . .   .   . .   . .   .   .


e|-----------------------------------------------------------------------------------|
B|-----------------------------------------------------------------------------------|
G|----------------------------------------------------------------------------------*|
D|-----10-------10----10-------14-------14----14------9-----9---9-----9-----9---9---*|x2
A|-----10-------10----10-------14-------14----14------9-----9---9-----9-----9---9----|
D|--10-10-10-10-10-10-10-10-14-14-14-14-14-14-14-14-9-9-9-9-9-9-9-9-9-9-9-9-9-9-9-9--|
pm   .     .  .     .     .  .     .  .     .     . .   . .   .   . .   . .   .   .


End of the chorus
e|---------------------------------------------------------------|
B|---------------------------------------------------------------|
G|---------------------------------------------------------------|
D|-----10-------10----10-------10-------10----10----7------------|
A|-----10-------10----10-------10-------10----10----7------------|
D|--10-10-10-10-10-10-10-10-10-10-10-10-10-10-10-10-7---7-8-7-5--|
pm   .     .  .     .     .  .     .  .     .     .


Final chord
e|-----|
B|-----|
G|-----|
D|--2--|
A|--2--|
D|--2--|
Tap to rate this tab
 
# A B C D E F G H I J K L M N O P Q R S T U V W X Y Z