Song name
# A B C D E F G H I J K L M N O P Q R S T U V W X Y Z

Rammstein - Kokain tab

RAMMSTEIN		KOKAIN		KEIN ENGEL TRACK3

	-[Drop D Tuning]

[00:28 - 00:30]
	|----------------------------|
	|----------------------------|
	|----------------------------|
	|5--5-5-5--5-5-5-5-5--5-5-5--|
	|5--5-5-5--5-5-5-5-5--5-5-5--|
	|5--5-5-5--5-5-5-5-5--5-5-5--|
	    . .    . . . .    . .  


[00:35 - 00:37]
	|----------------------------|
	|----------------------------|
	|----------------------------|
	|5--5-5-5--5-5-5-5-5--5-5-5--|
	|5--5-5-5--5-5-5-5-5--5-5-5--|
	|5--5-5-5--5-5-5-5-5--5-5-5--|
	    . .    . . . .    . .  


[00:37 - 00:43]
	|----------------------------|------------------------------|
	|----------------------------|------------------------------|
	|----------------------------|------------------------------|
	|5--5-5-5--5-5-5-5-5--5-5-5--|4<5--5-5-5--5-5-5-5-5--5-5-5--|
	|5--5-5-5--5-5-5-5-5--5-5-5--|4<5--5-5-5--5-5-5-5-5--5-5-5--|
	|5--5-5-5--5-5-5-5-5--5-5-5--|4<5--5-5-5--5-5-5-5-5--5-5-5--|
	    . .    . . . .    . .  	   . .    . . . .    . .


[00:43 - 00:48]
	|------------------------------|------------------------------|
	|------------------------------|------------------------------|
	|------------------------------|------------------------------|
	|4<5--5-5-5--5-5-5-5-5--5-5-5--|4<5--5-5-5--5-5-5-5-3--3-3-3--|
	|4<5--5-5-5--5-5-5-5-5--5-5-5--|4<5--5-5-5--5-5-5-5-3--3-3-3--|
	|4<5--5-5-5--5-5-5-5-5--5-5-5--|4<5--5-5-5--5-5-5-5-3--3-3-3--|
	      . .    . . . .    . .  	     . .    . . . .    . .


[00:48 - 00:53]
	|----------------------------|------------------------------|
	|----------------------------|------------------------------|
	|----------------------------|------------------------------|
	|5--5-5-5--5-5-5-5-5--5-5-5--|4<5--5-5-5--5-5-5-5-5--5-5-5--|
	|5--5-5-5--5-5-5-5-5--5-5-5--|4<5--5-5-5--5-5-5-5-5--5-5-5--|
	|5--5-5-5--5-5-5-5-5--5-5-5--|4<5--5-5-5--5-5-5-5-5--5-5-5--|
	    . .    . . . .    . .  	   . .    . . . .    . .


[00:53 - 00:58]
	|------------------------------|-----------------------|
	|------------------------------|-----------------------|
	|------------------------------|-----------------------|
	|4<5--5-5-5--5-5-5-5-5--5-5-5--|4<5--5-5-5--5-5-5-5-3--|
	|4<5--5-5-5--5-5-5-5-5--5-5-5--|4<5--5-5-5--5-5-5-5-3--|
	|4<5--5-5-5--5-5-5-5-5--5-5-5--|4<5--5-5-5--5-5-5-5-3--|
	      . .    . . . .    . .  	     . .    . . . .


[01:11 - 01:13]
	|----------------------------|
	|----------------------------|
	|----------------------------|
	|5--5-5-5--5-5-5-5-5--5-5-5--|
	|5--5-5-5--5-5-5-5-5--5-5-5--|
	|5--5-5-5--5-5-5-5-5--5-5-5--|
	    . .    . . . .    . .


[01:18 - 01:21]
	|----------------------------|
	|----------------------------|
	|----------------------------|
	|5--5-5-5--5-5-5-5-5--5-5-5--|
	|5--5-5-5--5-5-5-5-5--5-5-5--|
	|5--5-5-5--5-5-5-5-5--5-5-5--|
	    . .    . . . .    . .  


[01:21 - 01:26]
	|----------------------------|------------------------------|
	|----------------------------|------------------------------|
	|----------------------------|------------------------------|
	|5--5-5-5--5-5-5-5-5--5-5-5--|4<5--5-5-5--5-5-5-5-5--5-5-5--|
	|5--5-5-5--5-5-5-5-5--5-5-5--|4<5--5-5-5--5-5-5-5-5--5-5-5--|
	|5--5-5-5--5-5-5-5-5--5-5-5--|4<5--5-5-5--5-5-5-5-5--5-5-5--|
	    . .    . . . .    . .  	   . .    . . . .    . .


[01:26 - 01:31]
	|------------------------------|------------------------------|
	|------------------------------|------------------------------|
	|------------------------------|------------------------------|
	|4<5--5-5-5--5-5-5-5-5--5-5-5--|4<5--5-5-5--5-5-5-5-3--3-3-3--|
	|4<5--5-5-5--5-5-5-5-5--5-5-5--|4<5--5-5-5--5-5-5-5-3--3-3-3--|
	|4<5--5-5-5--5-5-5-5-5--5-5-5--|4<5--5-5-5--5-5-5-5-3--3-3-3--|
	      . .    . . . .    . .  	     . .    . . . .    . .


[01:31 - 01:36]
	|----------------------------|------------------------------|
	|----------------------------|------------------------------|
	|----------------------------|------------------------------|
	|5--5-5-5--5-5-5-5-5--5-5-5--|4<5--5-5-5--5-5-5-5-5--5-5-5--|
	|5--5-5-5--5-5-5-5-5--5-5-5--|4<5--5-5-5--5-5-5-5-5--5-5-5--|
	|5--5-5-5--5-5-5-5-5--5-5-5--|4<5--5-5-5--5-5-5-5-5--5-5-5--|
	    . .    . . . .    . .  	   . .    . . . .    . .


[01:36 - 01:41]
	|------------------------------|------------------------------|
	|------------------------------|------------------------------|
	|------------------------------|------------------------------|
	|4<5--5-5-5--5-5-5-5-5--5-5-5--|4<5--5-5-5--5-5-5-5-3--3-3-3--|
	|4<5--5-5-5--5-5-5-5-5--5-5-5--|4<5--5-5-5--5-5-5-5-3--3-3-3--|
	|4<5--5-5-5--5-5-5-5-5--5-5-5--|4<5--5-5-5--5-5-5-5-3--3-3-3--|
	      . .    . . . .    . .  	     . .    . . . .    . .

[01:41 - 01:46]
	|----------------------------|------------------------------|
	|----------------------------|------------------------------|
	|----------------------------|------------------------------|
	|5--5-5-5--5-5-5-5-5--5-5-5--|4<5--5-5-5--5-5-5-5-5--5-5-5--|
	|5--5-5-5--5-5-5-5-5--5-5-5--|4<5--5-5-5--5-5-5-5-5--5-5-5--|
	|5--5-5-5--5-5-5-5-5--5-5-5--|4<5--5-5-5--5-5-5-5-5--5-5-5--|
	    . .    . . . .    . .          . .    . . . .    . .


[01:46 - 01:51]
	|------------------------------|------------------------------|
	|------------------------------|------------------------------|
	|------------------------------|------------------------------|
	|4<5--5-5-5--5-5-5-5-5--5-5-5--|4<5--5-5-5--5-5-5-5-3--3-3-3--|
	|4<5--5-5-5--5-5-5-5-5--5-5-5--|4<5--5-5-5--5-5-5-5-3--3-3-3--|
	|4<5--5-5-5--5-5-5-5-5--5-5-5--|4<5--5-5-5--5-5-5-5-3--3-3-3--|
	      . .    . . . .    . .  	     . .    . . . .    . .


[01:51 - 01:56]
	|----------------------------|------------------------------|
	|----------------------------|------------------------------|
	|----------------------------|------------------------------|
	|5--5-5-5--5-5-5-5-5--5-5-5--|4<5--5-5-5--5-5-5-5-5--5-5-5--|
	|5--5-5-5--5-5-5-5-5--5-5-5--|4<5--5-5-5--5-5-5-5-5--5-5-5--|
	|5--5-5-5--5-5-5-5-5--5-5-5--|4<5--5-5-5--5-5-5-5-5--5-5-5--|
	    . .    . . . .    . .  	   . .    . . . .    . .


[01:56 - 02:01]
	|------------------------------|-----------------------|
	|------------------------------|-----------------------|
	|------------------------------|-----------------------|
	|4<5--5-5-5--5-5-5-5-5--5-5-5--|4<5--5-5-5--5-5-5-5-3--|
	|4<5--5-5-5--5-5-5-5-5--5-5-5--|4<5--5-5-5--5-5-5-5-3--|
	|4<5--5-5-5--5-5-5-5-5--5-5-5--|4<5--5-5-5--5-5-5-5-3--|
	      . .    . . . .    . .  	     . .    . . . .


[02:24 - 02:29]
	|----------------------------|------------------------------|
	|----------------------------|------------------------------|
	|----------------------------|------------------------------|
	|5--5-5-5--5-5-5-5-5--5-5-5--|4<5--5-5-5--5-5-5-5-5--5-5-5--|
	|5--5-5-5--5-5-5-5-5--5-5-5--|4<5--5-5-5--5-5-5-5-5--5-5-5--|
	|5--5-5-5--5-5-5-5-5--5-5-5--|4<5--5-5-5--5-5-5-5-5--5-5-5--|
	    . .    . . . .    . .          . .    . . . .    . .


[02:29 - 02:34]
	|------------------------------|------------------------------|
	|------------------------------|------------------------------|
	|------------------------------|------------------------------|
	|4<5--5-5-5--5-5-5-5-5--5-5-5--|4<5--5-5-5--5-5-5-5-5--5-5-5--|
	|4<5--5-5-5--5-5-5-5-5--5-5-5--|4<5--5-5-5--5-5-5-5-5--5-5-5--|
	|4<5--5-5-5--5-5-5-5-5--5-5-5--|4<5--5-5-5--5-5-5-5-5--5-5-5--|
	      . .    . . . .    . .  	     . .    . . . .    . .


[02:34 - 02:37]
	|------------------------------|------------------------------|
	|------------------------------|------------------------------|
	|------------------------------|------------------------------|
	|4<5--5-5-5--5-5-5-5-5--5-5-5--|4<5--5-5-5--5-5-5-5-3--3-3-3--|
	|4<5--5-5-5--5-5-5-5-5--5-5-5--|4<5--5-5-5--5-5-5-5-3--3-3-3--|
	|4<5--5-5-5--5-5-5-5-5--5-5-5--|4<5--5-5-5--5-5-5-5-3--3-3-3--|
	      . .    . . . .    . .  	     . .    . . . .    . .


[02:37 - 02:42]
	|----------------------------|------------------------------|
	|----------------------------|------------------------------|
	|----------------------------|------------------------------|
	|5--5-5-5--5-5-5-5-5--5-5-5--|4<5--5-5-5--5-5-5-5-5--5-5-5--|
	|5--5-5-5--5-5-5-5-5--5-5-5--|4<5--5-5-5--5-5-5-5-5--5-5-5--|
	|5--5-5-5--5-5-5-5-5--5-5-5--|4<5--5-5-5--5-5-5-5-5--5-5-5--|
	    . .    . . . .    . .          . .    . . . .    . .


[02:42 - 02:46]
	|------------------------------|------------------------------|
	|------------------------------|------------------------------|
	|------------------------------|------------------------------|
	|4<5--5-5-5--5-5-5-5-5--5-5-5--|4<5--5-5-5--5-5-5-5-3--3-3-3--|
	|4<5--5-5-5--5-5-5-5-5--5-5-5--|4<5--5-5-5--5-5-5-5-3--3-3-3--|
	|4<5--5-5-5--5-5-5-5-5--5-5-5--|4<5--5-5-5--5-5-5-5-3--3-3-3--|
	      . .    . . . .    . .  	     . .    . . . .    . .


[02:47 - 02:51]
	|----------------------------|------------------------------|
	|----------------------------|------------------------------|
	|----------------------------|------------------------------|
	|5--5-5-5--5-5-5-5-5--5-5-5--|4<5--5-5-5--5-5-5-5-5--5-5-5--|
	|5--5-5-5--5-5-5-5-5--5-5-5--|4<5--5-5-5--5-5-5-5-5--5-5-5--|
	|5--5-5-5--5-5-5-5-5--5-5-5--|4<5--5-5-5--5-5-5-5-5--5-5-5--|
	    . .    . . . .    . .          . .    . . . .    . .


[02:51 - 02:57]
	|------------------------------|------------------------------|
	|------------------------------|------------------------------|
	|------------------------------|------------------------------|
	|4<5--5-5-5--5-5-5-5-5--5-5-5--|4<5--5-5-5--5-5-5-5-3--3-3-3--|
	|4<5--5-5-5--5-5-5-5-5--5-5-5--|4<5--5-5-5--5-5-5-5-3--3-3-3--|
	|4<5--5-5-5--5-5-5-5-5--5-5-5--|4<5--5-5-5--5-5-5-5-3--3-3-3--|
	      . .    . . . .    . .  	     . .    . . . .    . .


[02:57 - 03:02]
	|----------------------------|------------------------------|
	|----------------------------|------------------------------|
	|----------------------------|------------------------------|
	|5--5-5-5--5-5-5-5-5--5-5-5--|4<5--5-5-5--5-5-5-5-5--5-5-5--|
	|5--5-5-5--5-5-5-5-5--5-5-5--|4<5--5-5-5--5-5-5-5-5--5-5-5--|
	|5--5-5-5--5-5-5-5-5--5-5-5--|4<5--5-5-5--5-5-5-5-5--5-5-5--|
	    . .    . . . .    . .          . .    . . . .    . .


[03:02 - 03:07]
	|------------------------------|-----------------------|
	|------------------------------|-----------------------|
	|------------------------------|-----------------------|
	|4<5--5-5-5--5-5-5-5-5--5-5-5--|4<5--5-5-5--5-5-5-5-3--|
	|4<5--5-5-5--5-5-5-5-5--5-5-5--|4<5--5-5-5--5-5-5-5-3--|
	|4<5--5-5-5--5-5-5-5-5--5-5-5--|4<5--5-5-5--5-5-5-5-3--|
	      . .    . . . .    . .  	     . .    . . . .


	. = pal mute (...i think so) :D

Thx for visiting if there are mistakes or there is sth. wrong please contact me!
	icq : rammsteinfreak  488-098-597
	e-mail : ramm_stein_freak_93@gmx.de
Tap to rate this tab
# A B C D E F G H I J K L M N O P Q R S T U V W X Y Z