Song name
# A B C D E F G H I J K L M N O P Q R S T U V W X Y Z

Rammstein - Spieluhr tab

E||-------|-------|-------|-------|-------|-------|-------|-------|-------|
B||-------|-------|-------|-------|-------|-------|-------|-------|-------|
G||-------|-------|-------|-------|-------|-------|-------|-------|-------|
D||-------|-------|-------|-------|-------|-------|-------|-------|-------|
A||-------|-------|-------|-------|-------|-------|-------|-------|-------|
D||-------|-------|-------|-------|-------|-------|-------|-------|-------|


          Q    Q    Q    Q       E  E  Q       E  E  E  E  E  E  E  E   
-------|----------------------|-------------|--------------------------|
-------|----------------------|-------------|--------------------------|
-------|----------------------|-------------|--------------------------|
-------|----------------------|--0----------|--3--------3--------3-----|
-------|----------------------|--0----------|--3--------3--------3-----|
-------|----------------------|--0----------|--3--0--0--3--0--0--3--0--|


  E  E  E  E  E  E  E  S S    E  E  E  E  E  E  E  E   
---------------------------|--------------------------|
---------------------------|--------------------------|
---------------------------|--------------------------|
--3--------3--------3------|--3--------3--------3-----|
--3--------3--------3------|--3--------3--------3-----|
--3--0--0--3--0--0--3--0-0-|--3--0--0--3--0--0--3--0--|


  E  E  E  E  E  E  E  E     E  E  E  E  E  E  E  E   
--------------------------|--------------------------|
--------------------------|--------------------------|
--------------------------|--------------------------|
--3--------3-----6--6--6--|--3--------3--------3-----|
--3--------3-----6--6--6--|--3--------3--------3-----|
--3--0--0--3--0--6--6--6--|--3--0--0--3--0--0--3--0--|


  E  E  E  E  E  E  E  S S    E  E  E  E  E  E  E  E   
---------------------------|--------------------------|
---------------------------|--------------------------|
---------------------------|--------------------------|
--3--------3--------3------|--3--------3--------3-----|
--3--------3--------3------|--3--------3--------3-----|
--3--0--0--3--0--0--3--0-0-|--3--0--0--3--0--0--3--0--|


  E  E  E  E  E  E  E  E                                                   
--------------------------|-----|-----|-----|-----|-----|-----|-----|-----|
--------------------------|-----|-----|-----|-----|-----|-----|-----|-----|
--------------------------|-----|-----|-----|-----|-----|-----|-----|-----|
--3--------3-----6--6--6--|-----|-----|-----|-----|-----|-----|-----|-----|
--3--------3-----6--6--6--|-----|-----|-----|-----|-----|-----|-----|-----|
--3--0--0--3--0--6--6--6--|-----|-----|-----|-----|-----|-----|-----|-----|


  E  E  E  E  E  E  E  E     E  E  E  E  E  E  E  S S  
--------------------------|---------------------------|
--------------------------|---------------------------|
--------------------------|---------------------------|
--3--------3--------3-----|--3--------3--------3------|
--3--------3--------3-----|--3--------3--------3------|
--3--0--0--3--0--0--3--0--|--3--0--0--3--0--0--3--0-0-|


  E  E  E  E  E  E  E  E     E  E  E  E  E  E  E  E                           
--------------------------|--------------------------|-----|-----|-----|-----|
--------------------------|--------------------------|-----|-----|-----|-----|
--------------------------|--------------------------|-----|-----|-----|-----|
--3--------3--------3-----|--3--------3-----6--6--6--|-----|-----|-----|-----|
--3--------3--------3-----|--3--------3-----6--6--6--|-----|-----|-----|-----|
--3--0--0--3--0--0--3--0--|--3--0--0--3--0--6--6--6--|-----|-----|-----|-----|


                    E  E  E  E  E  E  E  E     E  E  E  E  E  E  E  E   
-----|-----|-----|--------------------------|--------------------------|
-----|-----|-----|--------------------------|--------------------------|
-----|-----|-----|--------------------------|--7--7--7--7--7--7--7--7--|
-----|-----|-----|-----------------6--6--6--|--7--7--7--7--7--7--7--7--|
-----|-----|-----|-----------------6--6--6--|--5--5--5--5--5--5--5--5--|
-----|-----|-----|-----------------6--6--6--|--------------------------|


  E  E  E  E  E  E  Q       E  E  E  E  E  E  E  E     E  E  E  E  E  E  Q     
-------------------------|--------------------------|-------------------------|
-------------------------|--------------------------|-------------------------|
--7--7--7--7--7--7--7----|--5--5--5--5--5--5--5--5--|--5--5--5--5--5--5--5----|
--7--7--7--7--7--7--7----|--5--5--5--5--5--5--5--5--|--5--5--5--5--5--5--5----|
--5--5--5--5--5--5--5----|--3--3--3--3--3--3--3--3--|--3--3--3--3--3--3--3----|
-------------------------|--------------------------|-------------------------|


  E  E  E  E  E  E  E  E     E  E  E  E  E  E  Q       E  E  E  E  E  E  E  E   
--------------------------|-------------------------|--------------------------|
--------------------------|-------------------------|--------------------------|
--3--3--3--3--3--3--3--3--|--3--3--3--3--3--5--5----|--------------------------|
--3--3--3--3--3--3--3--3--|--3--3--3--3--3--5--5----|--3--3--3--3--3--3--3--3--|
--1--1--1--1--1--1--1--1--|--1--1--1--1--1--3--3----|--3--3--3--3--3--3--3--3--|
--------------------------|-------------------------|--3--3--3--3--3--3--3--3--|


  E  E  E  E  E  E  E  E     E  E  E  E  E  E  E  E     E  E  E  E  E  E  Q     
--------------------------|--------------------------|-------------------------|
--------------------------|--------------------------|-------------------------|
--------------------------|--7--7--7--7--7--7--7--7--|--7--7--7--7--7--7--7----|
--7--7--7--7--7--7--7--7--|--7--7--7--7--7--7--7--7--|--7--7--7--7--7--7--7----|
--7--7--7--7--7--7--7--7--|--5--5--5--5--5--5--5--5--|--5--5--5--5--5--5--5----|
--7--7--7--7--7--7--7--7--|--------------------------|-------------------------|


  E  E  E  E  E  E  E  E     E  E  E  E  E  E  Q       E  E  E  E  E  E  E  E   
--------------------------|-------------------------|--------------------------|
--------------------------|-------------------------|--------------------------|
--5--5--5--5--5--5--5--5--|--5--5--5--5--5--5--5----|--3--3--3--3--3--3--3--3--|
--5--5--5--5--5--5--5--5--|--5--5--5--5--5--5--5----|--3--3--3--3--3--3--3--3--|
--3--3--3--3--3--3--3--3--|--3--3--3--3--3--3--3----|--1--1--1--1--1--1--1--1--|
--------------------------|-------------------------|--------------------------|


  E  E  E  E  E  E  Q       E  E  E  E  E  E  E  E     E  E  E  E  E  E  E  E   
-------------------------|--------------------------|--------------------------|
-------------------------|--------------------------|--------------------------|
--3--3--3--3--3--5--5----|--------------------------|--------------------------|
--3--3--3--3--3--5--5----|--3--3--3--3--3--3--3--3--|--7--7--7--7--7--7--7--7--|
--1--1--1--1--1--3--3----|--3--3--3--3--3--3--3--3--|--7--7--7--7--7--7--7--7--|
-------------------------|--3--3--3--3--3--3--3--3--|--7--7--7--7--7--7--7--7--|


        E  E  E  E  E  E  E  E     E  E  E  E  E  E  E  S S  
-----|--------------------------|---------------------------|
-----|--------------------------|---------------------------|
-----|--------------------------|---------------------------|
-----|--3--------3--------3-----|--3--------3--------3------|
-----|--3--------3--------3-----|--3--------3--------3------|
-----|--3--0--0--3--0--0--3--0--|--3--0--0--3--0--0--3--0-0-|


  E  E  E  E  E  E  E  E     E  E  E  E  E  E  E  E                           
--------------------------|--------------------------|-----|-----|-----|-----|
--------------------------|--------------------------|-----|-----|-----|-----|
--------------------------|--------------------------|-----|-----|-----|-----|
--3--------3--------3-----|--3--------3-----6--6--6--|-----|-----|-----|-----|
--3--------3--------3-----|--3--------3-----6--6--6--|-----|-----|-----|-----|
--3--0--0--3--0--0--3--0--|--3--0--0--3--0--6--6--6--|-----|-----|-----|-----|


-----|-----|-----|-----|-----|-----|-----|-----|-----|-----|-----|
-----|-----|-----|-----|-----|-----|-----|-----|-----|-----|-----|
-----|-----|-----|-----|-----|-----|-----|-----|-----|-----|-----|
-----|-----|-----|-----|-----|-----|-----|-----|-----|-----|-----|
-----|-----|-----|-----|-----|-----|-----|-----|-----|-----|-----|
-----|-----|-----|-----|-----|-----|-----|-----|-----|-----|-----|


  E  E  E  E  E  E  E  E     E  E  E  E  E  E  E  E     E  E  E  E  E  E  Q     
--------------------------|--------------------------|-------------------------|
--------------------------|--------------------------|-------------------------|
--------------------------|--7--7--7--7--7--7--7--7--|--7--7--7--7--7--7--7----|
-----------------6--6--6--|--7--7--7--7--7--7--7--7--|--7--7--7--7--7--7--7----|
-----------------6--6--6--|--5--5--5--5--5--5--5--5--|--5--5--5--5--5--5--5----|
-----------------6--6--6--|--------------------------|-------------------------|


  E  E  E  E  E  E  E  E     E  E  E  E  E  E  Q       E  E  E  E  E  E  E  E   
--------------------------|-------------------------|--------------------------|
--------------------------|-------------------------|--------------------------|
--5--5--5--5--5--5--5--5--|--5--5--5--5--5--5--5----|--3--3--3--3--3--3--3--3--|
--5--5--5--5--5--5--5--5--|--5--5--5--5--5--5--5----|--3--3--3--3--3--3--3--3--|
--3--3--3--3--3--3--3--3--|--3--3--3--3--3--3--3----|--1--1--1--1--1--1--1--1--|
--------------------------|-------------------------|--------------------------|


  E  E  E  E  E  E  Q       E  E  E  E  E  E  E  E     E  E  E  E  E  E  E  E   
-------------------------|--------------------------|--------------------------|
-------------------------|--------------------------|--------------------------|
--3--3--3--3--3--5--5----|--------------------------|--------------------------|
--3--3--3--3--3--5--5----|--3--3--3--3--3--3--3--3--|--7--7--7--7--7--7--7--7--|
--1--1--1--1--1--3--3----|--3--3--3--3--3--3--3--3--|--7--7--7--7--7--7--7--7--|
-------------------------|--3--3--3--3--3--3--3--3--|--7--7--7--7--7--7--7--7--|


  E  E  E  E  E  E  E  E     E  E  E  E  E  E  Q       E  E  E  E  E  E  E  E   
--------------------------|-------------------------|--------------------------|
--------------------------|-------------------------|--------------------------|
--7--7--7--7--7--7--7--7--|--7--7--7--7--7--7--7----|--5--5--5--5--5--5--5--5--|
--7--7--7--7--7--7--7--7--|--7--7--7--7--7--7--7----|--5--5--5--5--5--5--5--5--|
--5--5--5--5--5--5--5--5--|--5--5--5--5--5--5--5----|--3--3--3--3--3--3--3--3--|
--------------------------|-------------------------|--------------------------|


  E  E  E  E  E  E  Q       E  E  E  E  E  E  E  E     E  E  E  E  E  E  Q     
-------------------------|--------------------------|-------------------------|
-------------------------|--------------------------|-------------------------|
--5--5--5--5--5--5--5----|--3--3--3--3--3--3--3--3--|--3--3--3--3--3--5--5----|
--5--5--5--5--5--5--5----|--3--3--3--3--3--3--3--3--|--3--3--3--3--3--5--5----|
--3--3--3--3--3--3--3----|--1--1--1--1--1--1--1--1--|--1--1--1--1--1--3--3----|
-------------------------|--------------------------|-------------------------|


  E  E  E  E  E  E  E  E     E  E  E  E  E  E  E  E   
--------------------------|--------------------------|
--------------------------|--------------------------|
--------------------------|--------------------------|
--3--3--3--3--3--3--3--3--|--7--7--7--7--7--7--7--7--|
--3--3--3--3--3--3--3--3--|--7--7--7--7--7--7--7--7--|
--3--3--3--3--3--3--3--3--|--7--7--7--7--7--7--7--7--|


  E  E  E  E  E  E  E  E     E  E  E  E  E  E  Q       E  E  E  E  E  E  E  E   
--------------------------|-------------------------|--------------------------|
--------------------------|-------------------------|--------------------------|
--7--7--7--7--7--7--7--7--|--7--7--7--7--7--7--7----|--5--5--5--5--5--5--5--5--|
--7--7--7--7--7--7--7--7--|--7--7--7--7--7--7--7----|--5--5--5--5--5--5--5--5--|
--5--5--5--5--5--5--5--5--|--5--5--5--5--5--5--5----|--3--3--3--3--3--3--3--3--|
--------------------------|-------------------------|--------------------------|


  E  E  E  E  E  E  Q       E  E  E  E  E  E  E  E     E  E  E  E  E  E  Q     
-------------------------|--------------------------|-------------------------|
-------------------------|--------------------------|-------------------------|
--5--5--5--5--5--5--5----|--3--3--3--3--3--3--3--3--|--3--3--3--3--3--5--5----|
--5--5--5--5--5--5--5----|--3--3--3--3--3--3--3--3--|--3--3--3--3--3--5--5----|
--3--3--3--3--3--3--3----|--1--1--1--1--1--1--1--1--|--1--1--1--1--1--3--3----|
-------------------------|--------------------------|-------------------------|


  E  E  E  E  E  E  E  E     E  E  E  E  E  E  E  E   
--------------------------|--------------------------|
--------------------------|--------------------------|
--------------------------|--------------------------|
--3--3--3--3--3--3--3--3--|--7--7--7--7--7--7--7--7--|
--3--3--3--3--3--3--3--3--|--7--7--7--7--7--7--7--7--|
--3--3--3--3--3--3--3--3--|--7--7--7--7--7--7--7--7--|


  E  E  E  E  E  E  E  E     E  E  E  E  E  E  Q       E  E  E  E  E  E  E  E   
--------------------------|-------------------------|--------------------------|
--------------------------|-------------------------|--------------------------|
--7--7--7--7--7--7--7--7--|--7--7--7--7--7--7--7----|--5--5--5--5--5--5--5--5--|
--7--7--7--7--7--7--7--7--|--7--7--7--7--7--7--7----|--5--5--5--5--5--5--5--5--|
--5--5--5--5--5--5--5--5--|--5--5--5--5--5--5--5----|--3--3--3--3--3--3--3--3--|
--------------------------|-------------------------|--------------------------|


  E  E  E  E  E  E  Q       E  E  E  E  E  E  E  E     E  E  E  E  E  E  Q     
-------------------------|--------------------------|-------------------------|
-------------------------|--------------------------|-------------------------|
--5--5--5--5--5--5--5----|--3--3--3--3--3--3--3--3--|--3--3--3--3--3--5--5----|
--5--5--5--5--5--5--5----|--3--3--3--3--3--3--3--3--|--3--3--3--3--3--5--5----|
--3--3--3--3--3--3--3----|--1--1--1--1--1--1--1--1--|--1--1--1--1--1--3--3----|
-------------------------|--------------------------|-------------------------|


  E  E  E  E  E  E  E  E     E  E  E  E  E  E  E  E                           
--------------------------|--------------------------|-----|-----|-----|-----|
--------------------------|--------------------------|-----|-----|-----|-----|
--------------------------|--------------------------|-----|-----|-----|-----|
--3--3--3--3--3--3--3--3--|--7--7--7--7--7--7--7--7--|-----|-----|-----|-----|
--3--3--3--3--3--3--3--3--|--7--7--7--7--7--7--7--7--|-----|-----|-----|-----|
--3--3--3--3--3--3--3--3--|--7--7--7--7--7--7--7--7--|-----|-----|-----|-----|


                          E  E  E  E  E  E  E  E     E  E  E  E  E   E   E  E   
-----|-----|-----|-----|--------------------------|----------------------------|
-----|-----|-----|-----|--------------------------|----------------------------|
-----|-----|-----|-----|--7--7--7--7--7--7--7--7--|--7--7--7--7--7--10--10-----|
-----|-----|-----|-----|--------------------------|-------------------------8--|
-----|-----|-----|-----|--------------------------|----------------------------|
-----|-----|-----|-----|--------------------------|----------------------------|


  E  E  E  E  E  E  E  E     E  E  E  E  E   E   E   E   
--------------------------|-----------------------------|
--------------------------|-------------------------10--|
--------------------------|-----------------------------|
--8--8--8--8--8--8--8--8--|--8--8--8--8--8--10--10------|
--------------------------|-----------------------------|
--------------------------|-----------------------------|


   E   E   E   E   E   E   E   E      E   E   E   E   E   E   E  E   
----------------------------------|---------------------------------|
--10--10--10--10--10--10--10--10--|--10--10--10--10--10--10--10--8--|
----------------------------------|---------------------------------|
----------------------------------|---------------------------------|
----------------------------------|---------------------------------|
----------------------------------|---------------------------------|


  E  E  E  E  E  E  E  E     E  E  E  E  E  E  E  E   
--------------------------|--------------------------|
--8--8--8--8--8--8--8--8--|--8--8--8-----------------|
--------------------------|-----------9--9--9--9--9--|
--------------------------|--------------------------|
--------------------------|--------------------------|
--------------------------|--------------------------|


  E  E  E  E  E  E  E  E     E  E  E  E  E  E  Q       E  E  E  E  E  E  E  E   
--------------------------|-------------------------|--------------------------|
--------------------------|-------------------------|--------------------------|
--7--7--7--7--7--7--7--7--|--7--7--7--7--7--7--7----|--5--5--5--5--5--5--5--5--|
--7--7--7--7--7--7--7--7--|--7--7--7--7--7--7--7----|--5--5--5--5--5--5--5--5--|
--5--5--5--5--5--5--5--5--|--5--5--5--5--5--5--5----|--3--3--3--3--3--3--3--3--|
--------------------------|-------------------------|--------------------------|


  E  E  E  E  E  E  Q       E  E  E  E  E  E  E  E     E  E  E  E  E  E  Q     
-------------------------|--------------------------|-------------------------|
-------------------------|--------------------------|-------------------------|
--5--5--5--5--5--5--5----|--3--3--3--3--3--3--3--3--|--3--3--3--3--3--5--5----|
--5--5--5--5--5--5--5----|--3--3--3--3--3--3--3--3--|--3--3--3--3--3--5--5----|
--3--3--3--3--3--3--3----|--1--1--1--1--1--1--1--1--|--1--1--1--1--1--3--3----|
-------------------------|--------------------------|-------------------------|


  E  E  E  E  E  E  E  E     E  E  E  E  E  E  E  E   
--------------------------|--------------------------|
--------------------------|--------------------------|
--------------------------|--------------------------|
--3--3--3--3--3--3--3--3--|--7--7--7--7--7--7--7--7--|
--3--3--3--3--3--3--3--3--|--7--7--7--7--7--7--7--7--|
--3--3--3--3--3--3--3--3--|--7--7--7--7--7--7--7--7--|


  E  E  E  E  E  E  E  E     E  E  E  E  E  E  Q       E  E  E  E  E  E  E  E   
--------------------------|-------------------------|--------------------------|
--------------------------|-------------------------|--------------------------|
--7--7--7--7--7--7--7--7--|--7--7--7--7--7--7--7----|--5--5--5--5--5--5--5--5--|
--7--7--7--7--7--7--7--7--|--7--7--7--7--7--7--7----|--5--5--5--5--5--5--5--5--|
--5--5--5--5--5--5--5--5--|--5--5--5--5--5--5--5----|--3--3--3--3--3--3--3--3--|
--------------------------|-------------------------|--------------------------|


  E  E  E  E  E  E  Q       E  E  E  E  E  E  E  E     E  E  E  E  E  E  Q     
-------------------------|--------------------------|-------------------------|
-------------------------|--------------------------|-------------------------|
--5--5--5--5--5--5--5----|--3--3--3--3--3--3--3--3--|--3--3--3--3--3--5--5----|
--5--5--5--5--5--5--5----|--3--3--3--3--3--3--3--3--|--3--3--3--3--3--5--5----|
--3--3--3--3--3--3--3----|--1--1--1--1--1--1--1--1--|--1--1--1--1--1--3--3----|
-------------------------|--------------------------|-------------------------|


  E  E  E  E  E  E  E  E     E  E  E  E  E  E  E  E   
--------------------------|--------------------------|
--------------------------|--------------------------|
--------------------------|--------------------------|
--3--3--3--3--3--3--3--3--|--7--7--7--7--7--7--7--7--|
--3--3--3--3--3--3--3--3--|--7--7--7--7--7--7--7--7--|
--3--3--3--3--3--3--3--3--|--7--7--7--7--7--7--7--7--|


  E  E  E  E  E  E  E  E     E  E  E  E  E  E  Q       E  E  E  E  E  E  E  E   
--------------------------|-------------------------|--------------------------|
--------------------------|-------------------------|--------------------------|
--7--7--7--7--7--7--7--7--|--7--7--7--7--7--7--7----|--5--5--5--5--5--5--5--5--|
--7--7--7--7--7--7--7--7--|--7--7--7--7--7--7--7----|--5--5--5--5--5--5--5--5--|
--5--5--5--5--5--5--5--5--|--5--5--5--5--5--5--5----|--3--3--3--3--3--3--3--3--|
--------------------------|-------------------------|--------------------------|


  E  E  E  E  E  E  Q       E  E  E  E  E  E  E  E     E  E  E  E  E  E  Q     
-------------------------|--------------------------|-------------------------|
-------------------------|--------------------------|-------------------------|
--5--5--5--5--5--5--5----|--3--3--3--3--3--3--3--3--|--3--3--3--3--3--5--5----|
--5--5--5--5--5--5--5----|--3--3--3--3--3--3--3--3--|--3--3--3--3--3--5--5----|
--3--3--3--3--3--3--3----|--1--1--1--1--1--1--1--1--|--1--1--1--1--1--3--3----|
-------------------------|--------------------------|-------------------------|


  E  E  E  E  E  E  E  E     E  E  E  E  E  E  E  E   
--------------------------|--------------------------|
--------------------------|--------------------------|
--------------------------|--------------------------|
--3--3--3--3--3--3--3--3--|--7--7--7--7--7--7--7--7--|
--3--3--3--3--3--3--3--3--|--7--7--7--7--7--7--7--7--|
--3--3--3--3--3--3--3--3--|--7--7--7--7--7--7--7--7--|


  E  E  E  E  E  E  E  E     E  E  E  E  E  E  Q       E  E  E  E  E  E  E  E   
--------------------------|-------------------------|--------------------------|
--------------------------|-------------------------|--------------------------|
--7--7--7--7--7--7--7--7--|--7--7--7--7--7--7--7----|--5--5--5--5--5--5--5--5--|
--7--7--7--7--7--7--7--7--|--7--7--7--7--7--7--7----|--5--5--5--5--5--5--5--5--|
--5--5--5--5--5--5--5--5--|--5--5--5--5--5--5--5----|--3--3--3--3--3--3--3--3--|
--------------------------|-------------------------|--------------------------|


  E  E  E  E  E  E  Q       E  E  E  E  E  E  E  E     E  E  E  E  E  E  Q     
-------------------------|--------------------------|-------------------------|
-------------------------|--------------------------|-------------------------|
--5--5--5--5--5--5--5----|--3--3--3--3--3--3--3--3--|--3--3--3--3--3--5--5----|
--5--5--5--5--5--5--5----|--3--3--3--3--3--3--3--3--|--3--3--3--3--3--5--5----|
--3--3--3--3--3--3--3----|--1--1--1--1--1--1--1--1--|--1--1--1--1--1--3--3----|
-------------------------|--------------------------|-------------------------|


  E  E  E  E  E  E  E  E     E  E  E  E  E  E  E  E                           
--------------------------|--------------------------|-----|-----|-----|-----|
--------------------------|--------------------------|-----|-----|-----|-----|
--------------------------|--------------------------|-----|-----|-----|-----|
--3--3--3--3--3--3--3--3--|--7--7--7--7--7--7--7--7--|-----|-----|-----|-----|
--3--3--3--3--3--3--3--3--|--7--7--7--7--7--7--7--7--|-----|-----|-----|-----|
--3--3--3--3--3--3--3--3--|--7--7--7--7--7--7--7--7--|-----|-----|-----|-----|


-----||
-----||
-----||
-----||
-----||
-----||

Duration Legend
---------------
W - whole
H - half
Q - quarter
E - 8th
S - 16th
Tap to rate this tab
# A B C D E F G H I J K L M N O P Q R S T U V W X Y Z