Song name
# A B C D E F G H I J K L M N O P Q R S T U V W X Y Z

Rammstein - Kuss Mich Fellfrosch tab

Band:      Rammstein
Song:      Kuss Mich (Fellfrosch)
Almum:     Sehnsucht
Tabber:    Slashdotcom//

Two Gits, Downtune Drop C 


Riff 1
|----------------------|
|----------------------|
|----------------------|
|---3---3----3---3---0-|
|-0-x-0-x-00-x-0-x-0-0-|2x
|-0-3-0-3-00-3-0-3-0-0-|
  .   .   ..   .   .

Riff 2
|-------------------------------------------------|
|-------------------------------------------------|
|-------------------------------------------------|
|---3---3----3---3---0-----3---3----3---3---3/5-0-|1X
|-0-x-0-x-00-x-0-x-0-0---0-x-0-x-00-x-0-x-0-x/x-0-|
|-0-3-0-3-00-3-0-3-0-0---0-3-0-3-00-3-0-3-0-3/5-0-|
  .   .   ..   .   .     .   .   ..   .   .

Riff 1
|----------------------|
|----------------------|
|----------------------|
|---3---3----3---3---0-|
|-0-x-0-x-00-x-0-x-0-0-|2x
|-0-3-0-3-00-3-0-3-0-0-|
  .   .   ..   .   .

Riff 2
|-------------------------------------------------|
|-------------------------------------------------|
|-------------------------------------------------|
|---3---3----3---3---0-----3---3----3---3---3/5-0-|1X
|-0-x-0-x-00-x-0-x-0-0---0-x-0-x-00-x-0-x-0-x/x-0-|
|-0-3-0-3-00-3-0-3-0-0---0-3-0-3-00-3-0-3-0-3/5-0-|
  .   .   ..   .   .     .   .   ..   .   .

Riff 1
|----------------------|
|----------------------|
|----------------------|
|---3---3----3---3---0-|
|-0-x-0-x-00-x-0-x-0-0-|2x
|-0-3-0-3-00-3-0-3-0-0-|
  .   .   ..   .   .

Riff 2
|-------------------------------------------------|
|-------------------------------------------------|
|-------------------------------------------------|
|---3---3----3---3---0-----3---3----3---3---3/5-0-|1X
|-0-x-0-x-00-x-0-x-0-0---0-x-0-x-00-x-0-x-0-x/x-0-|
|-0-3-0-3-00-3-0-3-0-0---0-3-0-3-00-3-0-3-0-3/5-0-|
  .   .   ..   .   .     .   .   ..   .   .

Riff 3
|---------------------------------|
|---------------------------------|
|-------2-----5-----5-----/-----2-|
|-0-----2-----5-----5-----/-----2-|2X
|-0-----0-----3-----3-----/-----0-|
|-0-------------------------------|

|---|
|---|
|---|
|-2-|
|-2-|
|-0-|

Riff 1
|----------------------|
|----------------------|
|----------------------|
|---3---3----3---3---0-|
|-0-x-0-x-00-x-0-x-0-0-|2x
|-0-3-0-3-00-3-0-3-0-0-|
  .   .   ..   .   .

Riff 2
|-------------------------------------------------|
|-------------------------------------------------|
|-------------------------------------------------|
|---3---3----3---3---0-----3---3----3---3---3/5-0-|1X
|-0-x-0-x-00-x-0-x-0-0---0-x-0-x-00-x-0-x-0-x/x-0-|
|-0-3-0-3-00-3-0-3-0-0---0-3-0-3-00-3-0-3-0-3/5-0-|
  .   .   ..   .   .     .   .   ..   .   .


Riff 3
|---------------------------------|
|---------------------------------|
|-------2-----5-----5-----/-----2-|
|-0-----2-----5-----5-----/-----2-|2X
|-0-----0-----3-----3-----/-----0-|
|-0-------------------------------|

|---|
|---|
|---|
|-2-|
|-2-|
|-0-|

Riff 1
|----------------------|
|----------------------|
|----------------------|
|---3---3----3---3---0-|
|-0-x-0-x-00-x-0-x-0-0-|2x
|-0-3-0-3-00-3-0-3-0-0-|
  .   .   ..   .   .

Riff 2
|-------------------------------------------------|
|-------------------------------------------------|
|-------------------------------------------------|
|---3---3----3---3---0-----3---3----3---3---3/5-0-|1X
|-0-x-0-x-00-x-0-x-0-0---0-x-0-x-00-x-0-x-0-x/x-0-|
|-0-3-0-3-00-3-0-3-0-0---0-3-0-3-00-3-0-3-0-3/5-0-|
  .   .   ..   .   .     .   .   ..   .   .

Riff 1
|----------------------|
|----------------------|
|----------------------|
|---3---3----3---3---0-|
|-0-x-0-x-00-x-0-x-0-0-|2x
|-0-3-0-3-00-3-0-3-0-0-|
  .   .   ..   .   .

Riff 2
|-------------------------------------------------|
|-------------------------------------------------|
|-------------------------------------------------|
|---3---3----3---3---0-----3---3----3---3---3/5-0-|1X
|-0-x-0-x-00-x-0-x-0-0---0-x-0-x-00-x-0-x-0-x/x-0-|
|-0-3-0-3-00-3-0-3-0-0---0-3-0-3-00-3-0-3-0-3/5-0-|
  .   .   ..   .   .     .   .   ..   .   .


Riff 3
|---------------------------------|
|---------------------------------|
|-------2-----5-----5-----/-----2-|
|-0-----2-----5-----5-----/-----2-|2X
|-0-----0-----3-----3-----/-----0-|
|-0-------------------------------|

|---|
|---|
|---|
|-2-|
|-2-|
|-0-|

Riff 1
|----------------------|
|----------------------|
|----------------------|
|---3---3----3---3---0-|
|-0-x-0-x-00-x-0-x-0-0-|2x
|-0-3-0-3-00-3-0-3-0-0-|
  .   .   ..   .   .

Riff 2
|-------------------------------------------------|
|-------------------------------------------------|
|-------------------------------------------------|
|---3---3----3---3---0-----3---3----3---3---3/5-0-|1X
|-0-x-0-x-00-x-0-x-0-0---0-x-0-x-00-x-0-x-0-x/x-0-|
|-0-3-0-3-00-3-0-3-0-0---0-3-0-3-00-3-0-3-0-3/5-0-|
  .   .   ..   .   .     .   .   ..   .   .

Riff 1
|----------------------|
|----------------------|
|----------------------|
|---3---3----3---3---0-|
|-0-x-0-x-00-x-0-x-0-0-|2x
|-0-3-0-3-00-3-0-3-0-0-|
  .   .   ..   .   .

Riff 2
|-------------------------------------------------|
|-------------------------------------------------|
|-------------------------------------------------|
|---3---3----3---3---0-----3---3----3---3---3/5-0-|1X
|-0-x-0-x-00-x-0-x-0-0---0-x-0-x-00-x-0-x-0-x/x-0-|
|-0-3-0-3-00-3-0-3-0-0---0-3-0-3-00-3-0-3-0-3/5-0-|
  .   .   ..   .   .     .   .   ..   .   .

Riff 1
|----------------------|
|----------------------|
|----------------------|
|---3---3----3---3---0-|
|-0-x-0-x-00-x-0-x-0-0-|2x
|-0-3-0-3-00-3-0-3-0-0-|
  .   .   ..   .   .

Riff 2
|-------------------------------------------------|
|-------------------------------------------------|
|-------------------------------------------------|
|---3---3----3---3---0-----3---3----3---3---3/5-0-|1X
|-0-x-0-x-00-x-0-x-0-0---0-x-0-x-00-x-0-x-0-x/x-0-|
|-0-3-0-3-00-3-0-3-0-0---0-3-0-3-00-3-0-3-0-3/5-0-|
  .   .   ..   .   .     .   .   ..   .   .

Riff 1
|----------------------|
|----------------------|
|----------------------|
|---3---3----3---3---0-|
|-0-x-0-x-00-x-0-x-0-0-|2x
|-0-3-0-3-00-3-0-3-0-0-|
  .   .   ..   .   .

Riff 2
|-------------------------------------------------|
|-------------------------------------------------|
|-------------------------------------------------|
|---3---3----3---3---0-----3---3----3---3---3/5-0-|1X
|-0-x-0-x-00-x-0-x-0-0---0-x-0-x-00-x-0-x-0-x/x-0-|
|-0-3-0-3-00-3-0-3-0-0---0-3-0-3-00-3-0-3-0-3/5-0-|
  .   .   ..   .   .     .   .   ..   .   .

Give it 5*          Check out my other Tabs
Tap to rate this tab
 
# A B C D E F G H I J K L M N O P Q R S T U V W X Y Z