Song name
# A B C D E F G H I J K L M N O P Q R S T U V W X Y Z

Rammstein - Speil Mit Mir tab

Help us improve GuitareTab! Take a short survey!
Key
.-palm mute
p-pull off
~-bend

Great song from sehnsucht
this song is played in all palm mutes except the solo

   Riff 1
e ---------------------------------------------|
b ---------------------------------------------|
g ---------------------------------------------|
d ---------------------------------------------|
a 222-2222-222-222-22-33-33--------------------|
D 000-0000-000-000-00-11-11--------------------|
  ...  ... ... ... .. .. ..

          riff 2
e ---------------------------------------------|
b ---------------------------------------------|
g ---------------------------------------------|
d ---------------------------------------------|
a 777-7777-777-777-77-888-555------------------|
D 555-5555-555-555-55-666-333------------------|
  ...  ... ... ... .. ... ...

          riff 3
e ---------------------------------------------|
b ---------------------------------------------|
g ---------------------------------------------|
d ---------------------------------------------|
a 999-222-222-777-77-333-222-------------------|
D 777-000-000-555-55-111-000-------------------|
  ... ... ... ... .. ... ...

                solo

e
b (12)p x8 (11)p         x2

e
b (12)p x12 (11)x4

e
b (12)p x8 (11)p         x2

e
b (12)p x14 (15)~

 Thats pretty much it. the solos a little complicated but if you listn to the song 
get it.
Related for Speil Mit Mir tab