Guitaretab - guitar tabs
Song name
# A B C D E F G H I J K L M N O P Q R S T U V W X Y Z

Rammstein - Mein Teil tab

Mein Teil
Rammstein

Tuning:DBCGBe

*note* I don't think I did very good on the solo


Intro a
Lead & Rhythm
e|------------------------------------------------|
B|------------------------------------------------|
G|------------------------------------------------|
C|------------------------------------------------|
B|1p0h1-1p0h131p0h1-1p0h1-1p0h1-1p0h131p0h1-1p0h1-|
D|1p0h1-1p0h131p0h1-1p0h1-1p0h1-1p0h131p0h1-1p0h1-|

Intro b
Lead & Rhythm
e|------------------------------------------------|
B|------------------------------------------------|
G|------------------------------------------------|
C|------------------------------------------------|
B|1p0h1-1p0h131p0h1-1p0h1-1p0h1-1p0h131p0h1-1p0h1-|
D|1p0h1-1p0h131p0h1-1p0h1-1p0h1-1p0h131p0h1-1p0h1-|

Intro c
Lead & Rhythm
e|------------------------------------------------|
B|------------------------------------------------|
G|------------------------------------------------|
C|------------------------------------------------|
B|1p0h1-1p0h1-1p0h1-1p0h1-1p0h1-1p0h1-1p0h1-1p0h1-|
D|1p0h1-1p0h1-1p0h1-1p0h1-1p0h1-1p0h1-1p0h1-1p0h1-|

Verse Ia
Lead
e|---------------------------------------------------------------------------|
B|-----------------10-10-10-10-10-10-10-10-10p8h10-10p8h1013p10p8h10-10p8h10-|
G|---------------------------------------------------------------------------|
C|---------------------------------------------------------------------------|
B|---------------------------------------------------------------------------|
D|---------------------------------------------------------------------------|
                    .  .  .  .  .  .  .  .

Verse Ia
Rhythm
e|------------------------------------------------|
B|------------------------------------------------|
G|------------------------------------------------|
C|------------------------------------------------|
B|------------------------------------------------|
D|101-1013101-101-101-1013101-101-101-1013101-101-|
  ... ....... ... ... ....... ... ... ....... ...

Verse Ib
Lead
e|----------------------------------------------------------|
B|10-10-10-10-10-10-10-10-10p8h10-10p8h1013p10p8h10-10p8h10-|
G|----------------------------------------------------------|
C|----------------------------------------------------------|
B|----------------------------------------------------------|
D|----------------------------------------------------------|
   .  .  .  .  .  .  .  .

Verse Ib
Rhythm
e|--------------------------------|
B|--------------------------------|
G|--------------------------------|
C|--------------------------------|
B|--------------------------------|
D|101-1013101-101-101-1013101-101-|
  ... ....... ... ... ....... ...

Verse Ic
Lead
e|----------------------------------------------------------|
B|10-10-10-10-10-10-10-10-10p8h10-10p8h1013p10p8h10-10p8h10-|
G|----------------------------------------------------------|
C|----------------------------------------------------------|
B|----------------------------------------------------------|
D|----------------------------------------------------------|
   .  .  .  .  .  .  .  .

Verse Ic
Rhythm
e|--------------------------------|
B|--------------------------------|
G|--------------------------------|
C|--------------------------------|
B|--------------------------------|
D|101-1013101-101-101-1013101-101-|
  ... ....... ... ... ....... ...

Verse I
Lead
e|----------------------------------------------------------|
B|10-10-10-10-10-10-10-10-10p8h10-10p8h1013p10p8h10-10p8h10-|
G|----------------------------------------------------------|
C|----------------------------------------------------------|
B|----------------------------------------------------------|
D|----------------------------------------------------------|
   .  .  .  .  .  .  .  .

Verse Id
Rhythm
e|--------------------------------|
B|--------------------------------|
G|--------------------------------|
C|--------------------------------|
B|--------------------------------|
D|101-1013101-101-101-1013101-101-|
  ... ....... ... ... ....... ...

Pre-Chorus I
Lead
e|--------------------------------------------------------------|
B|--------------------------------------------------------------|
G|--------------------------------------------------------------|
C|--------------------------------------------------------------|
B|----2233101-101----223-101-101----2233101-101----222222222222-|
D|----2233101-101-0--223-101-101----2233101-101-0--222222222222-|
                  .                             .        ......

Pre-Chorus I
Rhythm
e|--------------------------------------------------------------|
B|--------------------------------------------------------------|
G|--------------------------------------------------------------|
C|--------------------------------------------------------------|
B|------3-101-101----2-3-101-101------3-101-101----2-3----------|
D|------3-101-101----2-3-101-101------3-101-101----2-3-00000000-|
                     . .                           . . ....

Chorus Ia
Lead & Rhythm
e|---------------------------------------------------------|
B|---------------------------------------------------------|
G|---------------------------------------------------------|
C|--------------------0~~~3~~~--------------------0~~~3~~~-|
B|1p0h1-1p0h131p0h1~~~0~~~3~~~1p0h1-1p0h131p0h1~~~0~~~3~~~
D|1p0h1-1p0h131p0h1~~~0~~~3~~~1p0h1-1p0h131p0h1~~~0~~~3~~~

Chorus Ib
Lead & Rhythm
e|---------------------------------------------------------|
B|---------------------------------------------------------|
G|---------------------------------------------------------|
C|--------------------0~~~3~~~--------------------3~~/0~~~-|
B|1p0h1-1p0h131p0h1~~~0~~~3~~~1p0h1-1p0h131p0h1~~~3~~/0~~~
D|1p0h1-1p0h131p0h1~~~0~~~3~~~1p0h1-1p0h131p0h1~~~3~~/0~~~

Verse IIa
Lead
e|---------------------------------------------------------------------------|
B|-----------------------------------------10p8h10-10p8h1013p10p8h10-10p8h10-|
G|---------------------------------------------------------------------------|
C|---------------------------------------------------------------------------|
B|---------------------------------------------------------------------------|
D|---------------------------------------------------------------------------|

Verse IIa
Rhythm
e|------------------------------------------------|
B|------------------------------------------------|
G|------------------------------------------------|
C|------------------------------------------------|
B|------------------------------------------------|
D|101-1013101-101-101-1013101-101-101-1013101-101-|
  ... ....... ... ... ....... ... ... ....... ...

Verse IIb
Lead
e|----------------------------------------------------------|
B|------------------------10p8h10-10p8h1013p10p8h10-10p8h10-|
G|----------------------------------------------------------|
C|----------------------------------------------------------|
B|----------------------------------------------------------|
D|----------------------------------------------------------|

Verse IIb
Rhythm
e|--------------------------------|
B|--------------------------------|
G|--------------------------------|
C|--------------------------------|
B|--------------------------------|
D|101-1013101-101-101-1013101-101-|
  ... ....... ... ... ....... ...

Verse IIc
Lead
e|----------------------------------------------------------|
B|------------------------10p8h10-10p8h1013p10p8h10-10p8h10-|
G|----------------------------------------------------------|
C|----------------------------------------------------------|
B|----------------------------------------------------------|
D|----------------------------------------------------------|

Verse IIc
Rhythm
e|--------------------------------|
B|--------------------------------|
G|--------------------------------|
C|--------------------------------|
B|--------------------------------|
D|101-1013101-101-101-1013101-101-|
  ... ....... ... ... ....... ...
[ Tab from: http://www.guitaretab.com/r/rammstein/51413.html ]
Verse IId
Lead
e|----------------------------------------------------------|
B|10-10-10-10-10-10-10-10-10p8h10-10p8h1013p10p8h10-10p8h10-|
G|----------------------------------------------------------|
C|----------------------------------------------------------|
B|----------------------------------------------------------|
D|----------------------------------------------------------|
   .  .  .  .  .  .  .  .

Verse IId
Rhythm
e|--------------------------------|
B|--------------------------------|
G|--------------------------------|
C|--------------------------------|
B|--------------------------------|
D|101-1013101-101-101-1013101-101-|
  ... ....... ... ... ....... ...

Bridge a
Lead
e|----------------------------------------------------------------|
B|----------------------------------------------------------------|
G|----------------------------------------------------------------|
C|----------------------------------------------------------------|
B|1111111111111111333333335555555511111111111111113333333300000000
D|1111111111111111333333335555555511111111111111113333333300000000

Bridge a
Rhythm
e|----------------------------------------------------------------|
B|----------------------------------------------------------------|
G|----------------------------------------------------------------|
C|----------------------------------------------------------------|
B|1111111111111111333333335555555511111111111111113333333300000000
D|1111111111111111333333335555555511111111111111113333333300000000
  ................................................................

Bridge b
Lead
e|----------------------------------------------------------------|
B|----------------------------------------------------------------|
G|----------------------------------------------------------------|
C|----------------------------------------------------------------|
B|1111111111111111333333335555555511111111111111113333333300000000
D|1111111111111111333333335555555511111111111111113333333300000000

Bridge b
Rhythm
e|0~~~~~~~~~~~~~~~0~~~~~~~0~~~~~~~0~~~~~~~~~~~~~~~0~~~~~~~0~~~~~~~
B|0~~~~~~~~~~~~~~~0~~~~~~~0~~~~~~~0~~~~~~~~~~~~~~~0~~~~~~~0~~~~~~~
G|0~~~~~~~~~~~~~~~0~~~~~~~0~~~~~~~0~~~~~~~~~~~~~~~0~~~~~~~0~~~~~~~
C|1~~~~~~~~~~~~~~~3~~~~~~~5~~~~~~~1~~~~~~~~~~~~~~~3~~~~~~~0~~~~~~~
B|1~~~~~~~~~~~~~~~3~~~~~~~5~~~~~~~1~~~~~~~~~~~~~~~3~~~~~~~0~~~~~~~
D|1~~~~~~~~~~~~~~~3~~~~~~~5~~~~~~~1~~~~~~~~~~~~~~~3~~~~~~~0~~~~~~~

Pre-Chorus II
Lead
e|--------------------------------------------------------------|
B|--------------------------------------------------------------|
G|--------------------------------------------------------------|
C|--------------------------------------------------------------|
B|----2233101-101----223-101-101----2233101-101----222222222222-|
D|----2233101-101-0--223-101-101----2233101-101-0--222222222222-|
                  .                             .        ......

Pre-Chorus II
Rhythm
e|--------------------------------------------------------------|
B|--------------------------------------------------------------|
G|--------------------------------------------------------------|
C|--------------------------------------------------------------|
B|------3-101-101----2-3-101-101------3-101-101----2-3----------|
D|------3-101-101----2-3-101-101------3-101-101----2-3-00000000-|
                     . .                           . . ....

Chorus IIa
Lead & Rhythm
e|---------------------------------------------------------|
B|---------------------------------------------------------|
G|---------------------------------------------------------|
C|--------------------0~~~3~~~--------------------0~~~3~~~-|
B|1p0h1-1p0h131p0h1~~~0~~~3~~~1p0h1-1p0h131p0h1~~~0~~~3~~~
D|1p0h1-1p0h131p0h1~~~0~~~3~~~1p0h1-1p0h131p0h1~~~0~~~3~~~

Chorus IIb
Lead & Rhythm
e|---------------------------------------------------------|
B|---------------------------------------------------------|
G|---------------------------------------------------------|
C|--------------------0~~~3~~~--------------------3~~/0~~~-|
B|1p0h1-1p0h131p0h1~~~0~~~3~~~1p0h1-1p0h131p0h1~~~3~~/0~~~
D|1p0h1-1p0h131p0h1~~~0~~~3~~~1p0h1-1p0h131p0h1~~~3~~/0~~~

 Ein Schrei wird zum Himmel fahrn
Schneidet sich durch Engelsscharen
Vom Wolkendach ftllt Federfleisch
Auf meine Kindheit mit Gekreisch ♫

Solo a (voice box works very well with this part)
Lead
e|9/11b10~/11b11-11b11-11b11-11b11-14b14b/12-11b11-11b11---11b~-|
B|--------------------------------------------------------------|
G|--------------------------------------------------------------|
C|--------------------------------------------------------------|
B|--------------------------------------------------------------|
D|--------------------------------------------------------------|

Solo a
Rhythm
e|------------------------------------------------|
B|------------------------------------------------|
G|------------------------------------------------|
C|------------------------------------------------|
B|1p0h1-1p0h131p0h1-1p0h1-1p0h1-1p0h131p0h1-1p0h1-|
D|1p0h1-1p0h131p0h1-1p0h1-1p0h1-1p0h131p0h1-1p0h1-|

Solo b
Lead
e|7/9-11/8-10-12b-9/11b10~/11b11-11b11-11b11-11b11-14b14b/12-|
B|---------11------------------------------------------------|
G|-----------------------------------------------------------|
C|-----------------------------------------------------------|
B|-----------------------------------------------------------|
D|-----------------------------------------------------------|

Solo bI
Rhythm
e|------------------------------------------------|
B|------------------------------------------------|
G|------------------------------------------------|
C|------------------------------------------------|
B|1p0h1-1p0h131p0h1-1p0h1-1p0h1-1p0h131p0h1-1p0h1-|
D|1p0h1-1p0h131p0h1-1p0h1-1p0h1-1p0h131p0h1-1p0h1-|

Solo bII
Rhythm
e|------------------------------------------------|
B|------------------------------------------------|
G|------------------------------------------------|
C|------------------------------------------------|
B|1p0h1-1p0h131p0h1-1p0h1-1p0h1-1p0h131p0h1-1p0h1-|
D|1p0h1-1p0h131p0h1-1p0h1-1p0h1-1p0h131p0h1-1p0h1-|

Solo c
Lead
e|10-10b10-5/////17b/22b
B|----------------------|
G|----------------------|
C|----------------------|
B|----------------------|
D|----------------------|

Solo c
Rhythm
e|------------------------------------------------|
B|------------------------------------------------|
G|------------------------------------------------|
C|------------------------------------------------|
B|1p0h1-1p0h131p0h1-1p0h1-1p0h1-1p0h131p0h1-1p0h1-|
D|1p0h1-1p0h131p0h1-1p0h1-1p0h1-1p0h131p0h1-1p0h1-|

Chorus IIIa
Lead & Rhythm
e|---------------------------------------------------------|
B|---------------------------------------------------------|
G|---------------------------------------------------------|
C|--------------------0~~~3~~~--------------------0~~~3~~~-|
B|1p0h1-1p0h131p0h1~~~0~~~3~~~1p0h1-1p0h131p0h1~~~0~~~3~~~
D|1p0h1-1p0h131p0h1~~~0~~~3~~~1p0h1-1p0h131p0h1~~~0~~~3~~~

Chorus IIIb
Lead & Rhythm
e|---------------------------------------------------------|
B|---------------------------------------------------------|
G|---------------------------------------------------------|
C|--------------------0~~~3~~~--------------------3~~/0~~~-|
B|1p0h1-1p0h131p0h1~~~0~~~3~~~1p0h1-1p0h131p0h1~~~3~~/0~~~
D|1p0h1-1p0h131p0h1~~~0~~~3~~~1p0h1-1p0h131p0h1~~~3~~/0~~~

Chorus IVa
Lead & Rhythm
e|---------------------------------------------------------|
B|---------------------------------------------------------|
G|---------------------------------------------------------|
C|--------------------0~~~3~~~--------------------0~~~3~~~-|
B|1p0h1-1p0h131p0h1~~~0~~~3~~~1p0h1-1p0h131p0h1~~~0~~~3~~~
D|1p0h1-1p0h131p0h1~~~0~~~3~~~1p0h1-1p0h131p0h1~~~0~~~3~~~

Chorus IVb
Lead & Rhythm
e|---------------------------------------------------------|
B|---------------------------------------------------------|
G|---------------------------------------------------------|
C|--------------------0~~~3~~~--------------------3~~/0~~~-|
B|1p0h1-1p0h131p0h1~~~0~~~3~~~1p0h1-1p0h131p0h1~~~3~~/0~~~
D|1p0h1-1p0h131p0h1~~~0~~~3~~~1p0h1-1p0h131p0h1~~~3~~/0~~~
Related for Mein Teil tab