Song name
# A B C D E F G H I J K L M N O P Q R S T U V W X Y Z

Rammstein - Stein Um Stein tab

1st verse
[ Clean guitars with chorus and delay ]

1st guitar
D|-------------------|
A|-------------------|
F|*-------------3---*|
C|*-0---------3---3-*|x4
G|----------1--------|
C|--0----------------|

D|-------------------|
A|-------------------|
F|--------------3----|
C|--3---------3---3--|
G|----------1--------|
C|-------------------|

D|-------------------|
A|-------------------|
F|*-------------3---*|
C|*-0---------3---3-*|x10
G|----------1--------|
C|--0----------------|

D|-------------------|
A|-------------------|
F|-------------------|
C|------3-------5----|
G|----3---3---5---5--|
C|--3-------5--------|

2nd guitar
D|-------------------|
A|-------------------|
F|*-------------3---*|
C|*-0---------3---3-*|x15
G|----------1--------|
C|--0----------------|

D|-------------------|
A|-------------------|
F|-------------------|
C|------3-------5----|
G|----3---3---5---5--|
C|--3-------5--------|


Chorus
D|---------------------------------------------|
A|---------------------------------------------|
F|*-------------------------------------------*|
C|*-12-10-12-12-10-0-12-10-10-8-0-10-8-0-10-8-*|x4
G|--12-10-12-12-10-0-12-10-10-8-0-10-8-0-10-8--|
C|--12-10-12-12-10-0-12-10-10-8-0-10-8-0-10-8--|


2nd verse
[ Clean guitars with chorus and delay ]

Both guitars
D|-------------------|
A|-------------------|
F|*-------------3---*|
C|*-0---------3---3-*|x7
G|----------1--------|
C|--0----------------|

D|-------------------|
A|-------------------|
F|-------------------|
C|------3-------5----|
G|----3---3---5---5--|
C|--3-------5--------|


Bridge (02.03)

1st guitar
D|--------------------------------------|
A|--------------------------------------|
F|*-----------------------------10-----*|
C|*-0-------8-------0-------8---10-----*|x2
G|--0-------8-------0-------8---8-------|
C|--0-------8-------0-------8-----------|

D|--------------------------------------|
A|--------------------------------------|
F|--------------------------------------|
C|--0-------8-------0-------8-----------|
G|--0-------8-------0-------8-----------|
C|--0-------8-------0-------8-----------|

D|--------------------------------------|
A|--------------------------------------|
F|----------8-------10------12----------|
C|--0-------8-------10------12----------|
G|--0-------8-------8-------10----------|
C|--0-----------------------------------|

2nd guitar
D|--------------------------------------|
A|--------------------------------------|
F|*------------------------------------*|
C|*-0-------8-------0-------8---3------*|x2
G|--0-------8-------0-------8---3-------|
C|--0-------8-------0-------8---3-------|

D|--------------------------------------|
A|--------------------------------------|
F|--------------------------------------|
C|--0-------8-------0-------8-----------|
G|--0-------8-------0-------8-----------|
C|--0-------8-------0-------8-----------|

D|--------------------------------------|
A|--------------------------------------|
F|--------------------------------------|
C|--0-------8-------3-------5-----------|
G|--0-------8-------3-------5-----------|
C|--0-------8-------3-------5-----------|


Solo
[ With Whammy pedal ]

For every note, push the pedal forward to rise the pitch
one octave.
D|--------------------------------------------------|
A|--15~------15~------15~------15~------15~---15~---|
F|--------------------------------------------------|
C|--------------------------------------------------|
G|--------------------------------------------------|
C|--------------------------------------------------|

D|--------------------------------------------------|
A|--15~------15~------15~------15~------15~---15~---|
F|--------------------------------------------------|
C|--------------------------------------------------|
G|--------------------------------------------------|
C|--------------------------------------------------|

D|--------------------------------------------------|
A|--15~------15~------15~------15~------15/18-18~---|
F|--------------------------------------------------|
C|--------------------------------------------------|
G|--------------------------------------------------|
C|--------------------------------------------------|

D|--------------------------------------------------|
A|--13~---------------------------------------------|
F|-----------14~------12~------14~------9~----10~---|
C|--------------------------------------------------|
G|--------------------------------------------------|
C|--------------------------------------------------|

D|--------------------------------------------------|
A|--15~------15~------15~------15~------15~---15~---|
F|--------------------------------------------------|
C|--------------------------------------------------|
G|--------------------------------------------------|
C|--------------------------------------------------|

D|--------------------------------------19~---------|
A|--15~------15~------15~------15~------------------|
F|--------------------------------------------------|
C|--------------------------------------------------|
G|--------------------------------------------------|
C|--------------------------------------------------|

D|--------------------------------------------------|
A|--15~------15~------15~------15~------15/18-18~---|
F|--------------------------------------------------|
C|--------------------------------------------------|
G|--------------------------------------------------|
C|--------------------------------------------------|

D|--------------------------------------------------|
A|--13~---------------------------------------------|
F|-----------14~------12~------14~------9~----10~---|
C|--------------------------------------------------|
G|--------------------------------------------------|
C|--------------------------------------------------|


Rhythm behind the solo (repeats till the end)
D|-----------------------------------------|
A|-----------------------------------------|
F|*----------------------------------------|
C|*----------------------------------------|
G|-----------------------------------------|
C|--12-0-0-12-0-0-12-0-12-0-0-12-0-0-12-0--|

D|--------------------------------------|
A|--------------------------------------|
F|-------------------------------------*|
C|-------------------------------------*|
G|--------------------------------------|
C|--10-8-8-10-8-8-10-8-8-7-7-7-7-7-7-0--|
Tap to rate this tab
 
# A B C D E F G H I J K L M N O P Q R S T U V W X Y Z