Song name
# A B C D E F G H I J K L M N O P Q R S T U V W X Y Z

Rammstein - Stirb Nicht Vor Mir Dont Die Before I Do tab

Intro:
D|------7-------7-------7-------7----|
A|----9---9---9---9---9---9---9---9--|
F|--9-------9-------8-------8--------|
C|-----------------------------------|
G|-----------------------------------|
C|-----------------------------------|

D|------7-------7---------0-------0----|
A|----9---9---9---9-----2---2---2---2--|
F|--9-------9---------4-------4--------|
C|-------------------------------------|
G|-------------------------------------|
C|-------------------------------------|

Chorus:
D|------7-------7-------7-------7----|
A|----9---9---9---9---9---9---9---9--|
F|--9-------9-------8-------8--------|
C|-----------------------------------|
G|-----------------------------------|
C|-----------------------------------|

D|------7-------7--------0--------0----------|
A|----9---9---9---9----2---2----2---2--------|
F|--9-------9--------4-------4--------4-4b5--|
C|-------------------------------------------|
G|-------------------------------------------|
C|-------------------------------------------|

Last variation (3.32)
D|------7-------7-------7--------7-----|
A|----9---9---9---9---9---9---9---9----|
F|*-9-------9-------8-------8----------|
C|*------------------------------------|
G|-------------------------------------|
C|-------------------------------------|

D|------4-------4-------7-------7------|
A|----7---7---7---7---9---9---9---9----|
F|--6-------6-------8-------8---------*|
C|------------------------------------*|x2
G|-------------------------------------|
C|-------------------------------------|

The whole song is built up by the same acoustic patterns, and an electric guitar with a 
effect can be heard in the

background (especially at 2.48)


Chorus:
B5       F#5      G5       E5

At 2.17, 3.29 and 3.51 the chorus ends with an A5


Verse:
G5  F#5  B5       G5  F#5  B5          x3

E5  D5   B5       G5       F#5


Middle part from 2.21:
D5       F#5     G5        E5 x2

G5       F#5

G5       B5      G5        B5     \
                                   }(electric guitar only)
G5       B5      G5        F#5    /


Strum pattern for acoustic parts:

D=Downstroke U=Upstroke

D|--------------------------------------------------|
A|--D-----D-----D-----D--U-----U--D-----D-----D-----|
F|--------------------------------------------------|
C|--x-----x-----x-----x--x-----x--x-----x-----x-----|
G|--x-----x-----x-----x--x-----x--x-----x-----x-----|
C|--x-----x-----x-----x--x-----x--x-----x-----x-----|


Chords:
   D5 E5 F#5 G5  A5  B5
D|----------------------|
A|-5--7--9---10--12--14-|
F|-4--6--8---9---11--13-|
C|-2--4--6---7---9---11-|
G|-2--4--6---7---9---11-|
C|-2--4--6---7---9---11-|

You could also switch out the x5 chords with majors and minors in standard D tuning:

   D  Em F#m G  A  Bm
D|-0--2--4---0--2--4--|
A|-0--2--4---2--4--5--|
F|-1--2--4---2--4--6--|
C|-2--4--6---2--4--6--|
G|-2--4--6---0--2--4--|
D|-0--2--4------------|


Tap to rate this tab
 
# A B C D E F G H I J K L M N O P Q R S T U V W X Y Z