Song name
# A B C D E F G H I J K L M N O P Q R S T U V W X Y Z

Rammstein - Rosenrot tab

Artist:Rammstein
Album:Rosenrot
Title:Rosenrot
Tuning:Drop C (CGCFAD)

Intro,Verse:Bass plays only

Refrain:
D|---------------------------------|--------------------------------|
A|---------------------------------|--------------------------------|
F|---------------------------------|--------------------------------|
C|-0-0-0-0-0-0-0-0-8-8-8-8-8-8-8-8-|0-0-0-0-0-0-0-0-8-8-8-8-8-3-3-3-|
G|-0-0-0-0-0-0-0-0-8-8-8-8-8-8-8-8-|0-0-0-0-0-0-0-0-8-8-8-8-8-3-3-3-|
C|-0-0-0-0-0-0-0-0-8-8-8-8-8-8-8-8-|0-0-0-0-0-0-0-0-8-8-8-8-8-3-3-3-|

D|---------------------------------|--------------------------------|
A|---------------------------------|--------------------------------|
F|---------------------------------|--------------------------------|
C|-0-0-0-0-0-0-0-0-8-8-8-8-8-8-8-8-|0-0-0-0-0-0-0-0-8-8-8-8-8-3-3-3-|
G|-0-0-0-0-0-0-0-0-8-8-8-8-8-8-8-8-|0-0-0-0-0-0-0-0-8-8-8-8-8-3-3-3-|
C|-0-0-0-0-0-0-0-0-8-8-8-8-8-8-8-8-|0-0-0-0-0-0-0-0-8-8-8-8-8-3-3-3-|

Verse

Refrain:
D|---------------------------------|--------------------------------|
A|---------------------------------|--------------------------------|
F|---------------------------------|--------------------------------|
C|-0-0-0-0-0-0-0-0-8-8-8-8-8-8-8-8-|0-0-0-0-0-0-0-0-8-8-8-8-8-3-3-3-|
G|-0-0-0-0-0-0-0-0-8-8-8-8-8-8-8-8-|0-0-0-0-0-0-0-0-8-8-8-8-8-3-3-3-|
C|-0-0-0-0-0-0-0-0-8-8-8-8-8-8-8-8-|0-0-0-0-0-0-0-0-8-8-8-8-8-3-3-3-|

D|---------------------------------|--------------------------------|
A|---------------------------------|--------------------------------|
F|---------------------------------|--------------------------------|
C|-0-0-0-0-0-0-0-0-8-8-8-8-8-8-8-8-|0-0-0-0-0-0-0-0-8-8-8-8-8-3-3-3-|
G|-0-0-0-0-0-0-0-0-8-8-8-8-8-8-8-8-|0-0-0-0-0-0-0-0-8-8-8-8-8-3-3-3-|
C|-0-0-0-0-0-0-0-0-8-8-8-8-8-8-8-8-|0-0-0-0-0-0-0-0-8-8-8-8-8-3-3-3-|

D|---------------------------------|--------------------------------|
A|---------------------------------|--------------------------------|
F|---------------------------------|--------------------------------|
C|-0-0-0-0-0-0-0-0-8-8-8-8-8-8-8-8-|0-0-0-0-0-0-0-0-8-8-8-8-8-3-3-3-|
G|-0-0-0-0-0-0-0-0-8-8-8-8-8-8-8-8-|0-0-0-0-0-0-0-0-8-8-8-8-8-3-3-3-|
C|-0-0-0-0-0-0-0-0-8-8-8-8-8-8-8-8-|0-0-0-0-0-0-0-0-8-8-8-8-8-3-3-3-|

D|---------------------------------|--------------------------------|
A|---------------------------------|--------------------------------|
F|---------------------------------|--------------------------------|
C|-0-0-0-0-0-0-0-0-8-8-8-8-8-8-8-8-|0-0-0-0-0-0-0-0-8-8-8-8-8-3-3-3-|
G|-0-0-0-0-0-0-0-0-8-8-8-8-8-8-8-8-|0-0-0-0-0-0-0-0-8-8-8-8-8-3-3-3-|
C|-0-0-0-0-0-0-0-0-8-8-8-8-8-8-8-8-|0-0-0-0-0-0-0-0-8-8-8-8-8-3-3-3-|

D|---------------------------------|---------------------------------|
A|---------------------------------|---------------------------------|
F|---------------------------------|---------------------------------|
C|-12-10-0-12-10-0-12-10-13-10-0-13|-10-0-13-10-12-10-0-12-10-0-12-10|
G|-12-10-0-12-10-0-12-10-13-10-0-13|-10-0-13-10-12-10-0-12-10-0-12-10|
C|-12-10-0-12-10-0-12-10-13-10-0-13|-10-0-13-10-12-10-0-12-10-0-12-10|

D|---------------------------------|---------------------------------|
A|---------------------------------|---------------------------------|
F|---------------------------------|---------------------------------|
C|-10-8-0-10-8-0-10-8-12-10-0-12-10|-0-10-13-10-0-13-10-0-13-10-12-10|
G|-10-8-0-10-8-0-10-8-12-10-0-12-10|-0-10-13-10-0-13-10-0-13-10-12-10|
C|-10-8-0-10-8-0-10-8-12-10-0-12-10|-0-10-13-10-0-13-10-0-13-10-12-10|

D|------------------------------------|----|
A|------------------------------------|----|
F|------------------------------------|----|
C|-0-12-10-0-12-10-10-8-0-10-8-0-10-8-|-12-|
G|-0-12-10-0-12-10-10-8-0-10-8-0-10-8-|-12-|
C|-0-12-10-0-12-10-10-8-0-10-8-0-10-8-|-12-|

Verse

Refrain:
D|---------------------------------|--------------------------------|
A|---------------------------------|--------------------------------|
F|---------------------------------|--------------------------------|
C|-0-0-0-0-0-0-0-0-8-8-8-8-8-8-8-8-|0-0-0-0-0-0-0-0-8-8-8-8-8-3-3-3-|
G|-0-0-0-0-0-0-0-0-8-8-8-8-8-8-8-8-|0-0-0-0-0-0-0-0-8-8-8-8-8-3-3-3-|
C|-0-0-0-0-0-0-0-0-8-8-8-8-8-8-8-8-|0-0-0-0-0-0-0-0-8-8-8-8-8-3-3-3-|

D|---------------------------------|--------------------------------|
A|---------------------------------|--------------------------------|
F|---------------------------------|--------------------------------|
C|-0-0-0-0-0-0-0-0-8-8-8-8-8-8-8-8-|0-0-0-0-0-0-0-0-8-8-8-8-8-3-3-3-|
G|-0-0-0-0-0-0-0-0-8-8-8-8-8-8-8-8-|0-0-0-0-0-0-0-0-8-8-8-8-8-3-3-3-|
C|-0-0-0-0-0-0-0-0-8-8-8-8-8-8-8-8-|0-0-0-0-0-0-0-0-8-8-8-8-8-3-3-3-|

D|---------------------------------|--------------------------------|
A|---------------------------------|--------------------------------|
F|---------------------------------|--------------------------------|
C|-0-0-0-0-0-0-0-0-8-8-8-8-8-8-8-8-|0-0-0-0-0-0-0-0-8-8-8-8-8-3-3-3-|
G|-0-0-0-0-0-0-0-0-8-8-8-8-8-8-8-8-|0-0-0-0-0-0-0-0-8-8-8-8-8-3-3-3-|
C|-0-0-0-0-0-0-0-0-8-8-8-8-8-8-8-8-|0-0-0-0-0-0-0-0-8-8-8-8-8-3-3-3-|

D|---------------------------------|--------------------------------|
A|---------------------------------|--------------------------------|
F|---------------------------------|--------------------------------|
C|-0-0-0-0-0-0-0-0-8-8-8-8-8-8-8-8-|0-0-0-0-0-0-0-0-8-8-8-8-8-3-3-3-|
G|-0-0-0-0-0-0-0-0-8-8-8-8-8-8-8-8-|0-0-0-0-0-0-0-0-8-8-8-8-8-3-3-3-|
C|-0-0-0-0-0-0-0-0-8-8-8-8-8-8-8-8-|0-0-0-0-0-0-0-0-8-8-8-8-8-3-3-3-|

D|---------------------------------|---------------------------------|
A|---------------------------------|---------------------------------|
F|---------------------------------|---------------------------------|
C|-12-10-0-12-10-0-12-10-13-10-0-13|-10-0-13-10-12-10-0-12-10-0-12-10|
G|-12-10-0-12-10-0-12-10-13-10-0-13|-10-0-13-10-12-10-0-12-10-0-12-10|
C|-12-10-0-12-10-0-12-10-13-10-0-13|-10-0-13-10-12-10-0-12-10-0-12-10|

D|---------------------------------|---------------------------------|
A|---------------------------------|---------------------------------|
F|---------------------------------|---------------------------------|
C|-10-8-0-10-8-0-10-8-12-10-0-12-10|-0-10-13-10-0-13-10-0-13-10-12-10|
G|-10-8-0-10-8-0-10-8-12-10-0-12-10|-0-10-13-10-0-13-10-0-13-10-12-10|
C|-10-8-0-10-8-0-10-8-12-10-0-12-10|-0-10-13-10-0-13-10-0-13-10-12-10|

D|------------------------------------|----|
A|------------------------------------|----|
F|------------------------------------|----|
C|-0-12-10-0-12-10-10-8-0-10-8-0-10-8-|-12-|
G|-0-12-10-0-12-10-10-8-0-10-8-0-10-8-|-12-|
C|-0-12-10-0-12-10-10-8-0-10-8-0-10-8-|-12-|

END
Tap to rate this tab
# A B C D E F G H I J K L M N O P Q R S T U V W X Y Z