Song name
# A B C D E F G H I J K L M N O P Q R S T U V W X Y Z

Rammstein - Mann Gegen Mann tab

RAMMSTEIN		MANN GEGEN MANN		ROSENROT TRACK2

	-[Drop D Tuning]


[00:29 - 00:35]
	|-----------------------------------------------|
	|-----------------------------------------------|
	|-----------------------------------------------|
	|1-1-1-9--1-1-1-6--4--6---1-1-1-9--1-1-1-6--4--6|
	|1-1-1-9--1-1-1-6--4--6---1-1-1-9--1-1-1-6--4--6|
	|1-1-1-9--1-1-1-6--4--6---1-1-1-9--1-1-1-6--4--6|


[00:35 - 00:58]	   --> pls play with clear sound
	|---------------------------------------------|--\
	|---------------------------------------------|   \
	|---------------------------------------------|  -\\  please play 
	|---------------------------------------------|  -//  part 4x
	|1---9----1---6--4--6-----1---9----1---6--4--6|   /
	|1---9----1---6--4--6-----1---9----1---6--4--6|--/


[00:58 - 01:21]
	|-----------------------------------------------|--\
	|-----------------------------------------------|   \
	|-----------------------------------------------|  -\\  please play 
	|1-1-1-9--1-1-1-6--4--6---1-1-1-9--1-1-1-6--4--6|  -//  part 4x
	|1-1-1-9--1-1-1-6--4--6---1-1-1-9--1-1-1-6--4--6|   /
	|1-1-1-9--1-1-1-6--4--6---1-1-1-9--1-1-1-6--4--6|--/


[01:27 - 01:50]	   --> pls play with clear sound
	|---------------------------------------------|--\
	|---------------------------------------------|   \
	|---------------------------------------------|  -\\  please play 
	|---------------------------------------------|  -//  part 4x
	|1---9----1---6--4--6-----1---9----1---6--4--6|   /
	|1---9----1---6--4--6-----1---9----1---6--4--6|--/


[01:50 - 02:14]
	|-----------------------------------------------|--\
	|-----------------------------------------------|   \
	|-----------------------------------------------|  -\\  please play 
	|1-1-1-9--1-1-1-6--4--6---1-1-1-9--1-1-1-6--4--6|  -//  part 4x
	|1-1-1-9--1-1-1-6--4--6---1-1-1-9--1-1-1-6--4--6|   /
	|1-1-1-9--1-1-1-6--4--6---1-1-1-9--1-1-1-6--4--6|--/


[02:14 - 02:19]
	|---------------------------------------------------------------|
	|---------------------------------------------------------------|
	|---------------------------------------------------------------|
	|11-13-13---11-13-13---11-13-13---11-13-13---11-13-13---11-13-13|
	|11-13-13---11-13-13---11-13-13---11-13-13---11-13-13---11-13-13|
	|11-13-13---11-13-13---11-13-13---11-13-13---11-13-13---11-13-13|


[02:20 - 02:25]
	|---------------------------------------------------|
	|---------------------------------------------------|
	|---------------------------------------------------|
	|11-9-9---11-9-9---11-9-9---11-9-9---11-9-9---11-9-9|
	|11-9-9---11-9-9---11-9-9---11-9-9---11-9-9---11-9-9|
	|11-9-9---11-9-9---11-9-9---11-9-9---11-9-9---11-9-9|


[02:26 - 02:31]
	|---------------------------------------------------------------|
	|---------------------------------------------------------------|
	|---------------------------------------------------------------|
	|11-13-13---11-13-13---11-13-13---11-13-13---11-13-13---11-13-13|
	|11-13-13---11-13-13---11-13-13---11-13-13---11-13-13---11-13-13|
	|11-13-13---11-13-13---11-13-13---11-13-13---11-13-13---11-13-13|


[02:32 - 02:36]
	|---------------------------------------------------|
	|---------------------------------------------------|
	|---------------------------------------------------|
	|11-9-9---11-9-9---11-9-9---11-9-9---11-9-9---11-9-9|
	|11-9-9---11-9-9---11-9-9---11-9-9---11-9-9---11-9-9|
	|11-9-9---11-9-9---11-9-9---11-9-9---11-9-9---11-9-9|


[02:36 - 02:48]
	|---------------------------------------------|--\
	|---------------------------------------------|   \
	|---------------------------------------------|  -\\  please play 
	|1---9----1---6--4--6-----1---9----1---6--4--6|  -//  part 2x
	|1---9----1---6--4--6-----1---9----1---6--4--6|   /
	|1---9----1---6--4--6-----1---9----1---6--4--6|--/


[03:11 - 03:23]
	|--------------------------------|--\
	|--------------------------------|   \
	|--------------------------------|  -\\  please play this
	|1-1-1--9-9-9--1-1-1--6-6-6--4--6|  -//  part 4x
	|1-1-1--9-9-9--1-1-1--6-6-6--4--6|   /
	|1-1-1--9-9-9--1-1-1--6-6-6--4--6|--/
	 . . .  . . .  . . .  . . .  .  .


[03:23 - 03:47]
	|-----------------------------------------------|--\
	|-----------------------------------------------|   \
	|-----------------------------------------------|  -\\  please play 
	|1-1-1-9--1-1-1-6--4--6---1-1-1-9--1-1-1-6--4--6|  -//  part 4x
	|1-1-1-9--1-1-1-6--4--6---1-1-1-9--1-1-1-6--4--6|   /
	|1-1-1-9--1-1-1-6--4--6---1-1-1-9--1-1-1-6--4--6|--/

 . = pal mute (...i think so) :D

Thx for visiting if there are mistakes or there is sth. wrong please contact me!
	icq : rammsteinfreak  488-098-597
	e-mail : ramm_stein_freak_93@gmx.de
Tap to rate this tab
 
# A B C D E F G H I J K L M N O P Q R S T U V W X Y Z