Song name
# A B C D E F G H I J K L M N O P Q R S T U V W X Y Z

Rammstein - Ein Lied tab

-------------------------------------------------------------------------------
			     Ein Lied - Rammstein
-------------------------------------------------------------------------------
Tabbed by: Dark Archer
Email: archer_of_darkness@hotmail.com

Tuning: Dropped D

Right, this is my first tab so be nice ;) It might not sound right when you first
play it but if you listen closely to the song you'll hear it's right (I think).
Had to make the bars a bit longer, hope you don't mind.

Main riff: (Played most of the song)

e|-------------------------------------------------------------------------------|
B|-------------------------------------------------------------------------------|
G|-------------------------------------------------------------------------------|
D|-----3---------3---------2---------2---------5---------5---------2---------2---|
A|---0---0-----0---0-----3---3-----3---2-----2---2-----2---2-----2---2-----2---2-|
D|-0---------0---------3---------3---------2---------2---------2---------2-------|


Then, after you've played the main thing thirteen times, they play this once:

e|--------------------------------------------------------------------------------|
B|--------------------------------------------------------------------------------|
G|----------------------------------------------4---------4---------4---------4---|
D|-----3---------3---------10---------10------------------------------------------|
A|---3---3-----3---3-----7----7-----7----7----2---2-----2---2-----2---2-----2---2-|
D|-3---------3---------7----------7---------2---------2---------2---------2-------|

e|-------------------------------------------------------------------------------|
B|-------------------------------------------------------------------------------|
G|-------------------------------------------------------------------------------|
D|-----3---------3---------7---------7--------2---------2---------2---------2----|
A|---3---3-----3---3-----7---7-----7---7----2---2-----2---2-----2---2-----2---2--|
D|-3---------3---------7---------7--------2---------2---------2---------2--------|


Then it stops suddenly and you hear nothing but the bass guitar. I tried to put the 
of the played notes in the tab, the 2's and 0's are about 4 seconds, the 3's and 7's 2 sec:

e|--------------------------------------------------------------------------|
B|--------------------------------------------------------------------------|
G|--------------------------------------------------------------------------|
D|--------------------------------------------------------------------------|
A|--------------------------------------------------------------------------|
D|--2-------5-0--------2--------3----7----2--------3----7----2-------0------|


After this part the main riff is played four more times before another bass part starts. 
of the played notes are about two seconds:

e|--------------------------------------------------------------------------|
B|--------------------------------------------------------------------------|
G|--------------------------------------------------------------------------|
D|--------------------------------------------------------------------------|
A|--------------------------------------------------------------------------|
D|------0-------3-------2-------2-------0-------3-------2-------2-----------|

| /  slide up
| \  slide down
| h  hammer-on
| p  pull-off
| ~  vibrato
| +  harmonic
| x  Mute note
Tap to rate this tab
 
# A B C D E F G H I J K L M N O P Q R S T U V W X Y Z