Song name
# A B C D E F G H I J K L M N O P Q R S T U V W X Y Z

Rammstein - Fever Und Wasser tab

----------------------------------------------------------------------------
			     Fever und wasser-Rammstein
-----------------------------------------------------------------------------
Tabbed by: Carlos Yanko
Email: yankork@hotmail.com

Intro:


e|----------------------------------------------------------------------------|
B|----------------------------------------------------------------------------|
G|----------------------------------------------------------------------------|
D|----------------------------------------------------------------------------|
A|--3---3---3---3---3---3---3---3---3---3---3---3---3---3---3-----------------|
E|----3---3---3---3---3---3---3---3---3---3---3---3---3---3-------------------|

x3

e|---------------------------|
B|---------------------------|
G|---------------------------|
D|--1-----3----5----5--------|
A|----3-----5----6----6------|
E|---------------------------|

e|-------------------------------------------------------------------------|
B|-------------------------------------------------------------------------|
G|--5----3----1----1-------------------------------------------------------|
D|----6----5----3----3-----------------------------------------------------|
A|-------------------------------------------------------------------------|
E|-------------------------------------------------------------------------|

Despues cambia. (si quieren toda la tablatura de esta canción o de otras de rammsteinmandenme un correo

e|----------------------------------------------------------------------------|
B|----------------------------------------------------------------------------|
G|----------------------------------------------------------------------------|
D|--6---3---5---10---8---6---3--5---------------------------------------------|
A|--6---3---5---10---8---6---3--5---------------------------------------------|
E|--4---1---3----8---6---4---1--3---------------------------------------------|

despues durante toda la cancion va asi:

e|----------------------------------------------------------------------------|
B|----------------------------------------------------------------------------|
G|----------------------------------------------------------------------------|
D|--6---3---5---10---8---6---3--5---------------------------------------------|
A|--6---3---5---10---8---6---3--5---------------------------------------------|
E|--4---1---3----8---6---4---1--3---------------------------------------------|
Tap to rate this tab
 
# A B C D E F G H I J K L M N O P Q R S T U V W X Y Z