Song name
# A B C D E F G H I J K L M N O P Q R S T U V W X Y Z

Rammstein - Wolt Ihr Das Bett In Flemmen Sehen tab

------------------|--------------------------|--------------------------|
------------------|--------------------------|--------------------------|
------------------|--7-----8-----7--------5/-|--7-----8-----7--------5/-|
------------------|--7-----8-----7--------5/-|--7-----8-----7--------5/-|
------------------|--5-----6-----5--------3/-|--5-----6-----5--------3/-|
------------------|-----0-----0-----0--0-----|-----0-----0-----0--0-----|


                                                                                 
--------------------------|--------------------------|--------------------------|
--------------------------|--------------------------|--------------------------|
--7-----8-----7--------5/-|--7-----8-----7--------5/-|--7-----8-----7--------5/-|
--7-----8-----7--------5/-|--7-----8-----7--------5/-|--7-----8-----7--------5/-|
--5-----6-----5--------3/-|--5-----6-----5--------3/-|--5-----6-----5--------3/-|
-----0-----0-----0--0-----|-----0-----0-----0--0-----|-----0-----0-----0--0-----|


                                                                              
--------------------------|--------------------------|-----------------------|
--------------------------|--------------------------|-----------------------|
--7-----8-----7--------5/-|--7-----8-----7--------5/-|--7-----8-----7--------|
--7-----8-----7--------5/-|--7-----8-----7--------5/-|--7-----8-----7--------|
--5-----6-----5--------3/-|--5-----6-----5--------3/-|--5-----6-----5--------|
-----0-----0-----0--0-----|-----0-----0-----0--0-----|-----0-----0-----------|


                                                                      
----------------------------------|----------------------------------|
----------------------------------|----------------------------------|
--10--10--10--10--10--10--10--10--|--10--10--10--10--10--10--10--10--|
--10--10--10--10--10--10--10--10--|--10--10--10--10--10--10--10--10--|
--8---8---8---8---8---8---8---8---|--8---8---8---8---8---8---8---8---|
----------------------------------|----------------------------------|


                                                                                         
--------------------------|--------------------------|----------------------------------|
--------------------------|--------------------------|----------------------------------|
--7-----8-----7--------5/-|--7-----8-----7--------5/-|--10--10--10--10--10--10--10--10--|
--7-----8-----7--------5/-|--7-----8-----7--------5/-|--10--10--10--10--10--10--10--10--|
--5-----6-----5--------3/-|--5-----6-----5--------3/-|--8---8---8---8---8---8---8---8---|
-----0-----0-----0--0-----|-----0-----0-----0--0-----|----------------------------------|


                                                                                         
----------------------------------|--------------------------|--------------------------|
----------------------------------|--------------------------|--------------------------|
--10--10--10--10--10--10--10--10--|--7-----8-----7--------5/-|--7-----8-----7--------5/-|
--10--10--10--10--10--10--10--10--|--7-----8-----7--------5/-|--7-----8-----7--------5/-|
--8---8---8---8---8---8---8---8---|--5-----6-----5--------3/-|--5-----6-----5--------3/-|
----------------------------------|-----0-----0-----0--0-----|-----0-----0-----0--0-----|


                                                                      
----------------------------------|----------------------------------|
----------------------------------|----------------------------------|
--10--10--10--10--10--10--10--10--|--10--10--10--10--10--10--10--10--|
--10--10--10--10--10--10--10--10--|--10--10--10--10--10--10--10--10--|
--8---8---8---8---8---8---8---8---|--8---8---8---8---8---8---8---8---|
----------------------------------|----------------------------------|


                                                                                         
--------------------------|--------------------------|----------------------------------|
--------------------------|--------------------------|----------------------------------|
--7-----8-----7--------5/-|--7-----8-----7--------5/-|--10--10--10--10--10--10--10--10--|
--7-----8-----7--------5/-|--7-----8-----7--------5/-|--10--10--10--10--10--10--10--10--|
--5-----6-----5--------3/-|--5-----6-----5--------3/-|--8---8---8---8---8---8---8---8---|
-----0-----0-----0--0-----|-----0-----0-----0--0-----|----------------------------------|


                                                                         
----------------------------------|------------------|------------------|
----------------------------------|------------------|------------------|
--10--10--10--10--10--10--10--10--|------------------|------------------|
--10--10--10--10--10--10--10--10--|------------------|------------------|
--8---8---8---8---8---8---8---8---|------------------|------------------|
----------------------------------|------------------|------------------|


                                                                 
------------------|------------------|--------------------------|
------------------|------------------|--------------------------|
------------------|------------------|--7-----8-----7--------5/-|
------------------|------------------|--7-----8-----7--------5/-|
------------------|------------------|--5-----6-----5--------3/-|
------------------|------------------|-----0-----0-----0--0-----|


                                                                                 
--------------------------|--------------------------|--------------------------|
--------------------------|--------------------------|--------------------------|
--7-----8-----7--------5/-|--7-----8-----7--------5/-|--7-----8-----7--------5/-|
--7-----8-----7--------5/-|--7-----8-----7--------5/-|--7-----8-----7--------5/-|
--5-----6-----5--------3/-|--5-----6-----5--------3/-|--5-----6-----5--------3/-|
-----0-----0-----0--0-----|-----0-----0-----0--0-----|-----0-----0-----0--0-----|


                                                                                 
--------------------------|--------------------------|--------------------------|
--------------------------|--------------------------|--------------------------|
--7-----8-----7--------5/-|--7-----8-----7--------5/-|--7-----8-----7--------5/-|
--7-----8-----7--------5/-|--7-----8-----7--------5/-|--7-----8-----7--------5/-|
--5-----6-----5--------3/-|--5-----6-----5--------3/-|--5-----6-----5--------3/-|
-----0-----0-----0--0-----|-----0-----0-----0--0-----|-----0-----0-----0--0-----|


                                                                                 
--------------------------|--------------------------|--------------------------|
--------------------------|--------------------------|--------------------------|
--7-----8-----7--------5/-|--7-----8-----7--------5/-|--7-----8-----7--------5/-|
--7-----8-----7--------5/-|--7-----8-----7--------5/-|--7-----8-----7--------5/-|
--5-----6-----5--------3/-|--5-----6-----5--------3/-|--5-----6-----5--------3/-|
-----0-----0-----0--0-----|-----0-----0-----0--0-----|-----0-----0-----0--0-----|


                                                                                 
--------------------------|--------------------------|--------------------------|
--------------------------|--------------------------|--------------------------|
--7-----8-----7--------5/-|--7-----8-----7--------5/-|--7-----8-----7--------5/-|
--7-----8-----7--------5/-|--7-----8-----7--------5/-|--7-----8-----7--------5/-|
--5-----6-----5--------3/-|--5-----6-----5--------3/-|--5-----6-----5--------3/-|
-----0-----0-----0--0-----|-----0-----0-----0--0-----|-----0-----0-----0--0-----|


                                                                                 
--------------------------|--------------------------|--------------------------|
--------------------------|--------------------------|--------------------------|
--7-----8-----7--------5/-|--7-----8-----7--------5/-|--7-----8-----7--------5/-|
--7-----8-----7--------5/-|--7-----8-----7--------5/-|--7-----8-----7--------5/-|
--5-----6-----5--------3/-|--5-----6-----5--------3/-|--5-----6-----5--------3/-|
-----0-----0-----0--0-----|-----0-----0-----0--0-----|-----0-----0-----0--0-----|


                                                                      
----------------------------------|----------------------------------|
----------------------------------|----------------------------------|
--10--10--10--10--10--10--10--10--|--10--10--10--10--10--10--10--10--|
--10--10--10--10--10--10--10--10--|--10--10--10--10--10--10--10--10--|
--8---8---8---8---8---8---8---8---|--8---8---8---8---8---8---8---8---|
----------------------------------|----------------------------------|


                                                                                         
--------------------------|--------------------------|----------------------------------|
--------------------------|--------------------------|----------------------------------|
--7-----8-----7--------5/-|--7-----8-----7--------5/-|--10--10--10--10--10--10--10--10--|
--7-----8-----7--------5/-|--7-----8-----7--------5/-|--10--10--10--10--10--10--10--10--|
--5-----6-----5--------3/-|--5-----6-----5--------3/-|--8---8---8---8---8---8---8---8---|
-----0-----0-----0--0-----|-----0-----0-----0--0-----|----------------------------------|


                                                                                         
----------------------------------|--------------------------|--------------------------|
----------------------------------|--------------------------|--------------------------|
--10--10--10--10--10--10--10--10--|--7-----8-----7--------5/-|--7-----8-----7--------5/-|
--10--10--10--10--10--10--10--10--|--7-----8-----7--------5/-|--7-----8-----7--------5/-|
--8---8---8---8---8---8---8---8---|--5-----6-----5--------3/-|--5-----6-----5--------3/-|
----------------------------------|-----0-----0-----0--0-----|-----0-----0-----0--0-----|


                                                                      
----------------------------------|----------------------------------|
----------------------------------|----------------------------------|
--10--10--10--10--10--10--10--10--|--10--10--10--10--10--10--10--10--|
--10--10--10--10--10--10--10--10--|--10--10--10--10--10--10--10--10--|
--8---8---8---8---8---8---8---8---|--8---8---8---8---8---8---8---8---|
----------------------------------|----------------------------------|


                                                                                 
--------------------------|--------------------------|--------------------------|
--------------------------|--------------------------|--------------------------|
--7-----8-----7--------5/-|--7-----8-----7--------5/-|--7-----8-----7--------5/-|
--7-----8-----7--------5/-|--7-----8-----7--------5/-|--7-----8-----7--------5/-|
--5-----6-----5--------3/-|--5-----6-----5--------3/-|--5-----6-----5--------3/-|
-----0-----0-----0--0-----|-----0-----0-----0--0-----|-----0-----0-----0--0-----|


                                                                                 
--------------------------|--------------------------|--------------------------|
--------------------------|--------------------------|--------------------------|
--7-----8-----7--------5/-|--7-----8-----7--------5/-|--7-----8-----7--------5/-|
--7-----8-----7--------5/-|--7-----8-----7--------5/-|--7-----8-----7--------5/-|
--5-----6-----5--------3/-|--5-----6-----5--------3/-|--5-----6-----5--------3/-|
-----0-----0-----0--0-----|-----0-----0-----0--0-----|-----0-----0-----0--0-----|


                                                                                 
--------------------------|--------------------------|--------------------------|
--------------------------|--------------------------|--------------------------|
--7-----8-----7--------5/-|--7-----8-----7--------5/-|--7-----8-----7--------5/-|
--7-----8-----7--------5/-|--7-----8-----7--------5/-|--7-----8-----7--------5/-|
--5-----6-----5--------3/-|--5-----6-----5--------3/-|--5-----6-----5--------3/-|
-----0-----0-----0--0-----|-----0-----0-----0--0-----|-----0-----0-----0--0-----|


                                                                                 
--------------------------|--------------------------|--------------------------|
--------------------------|--------------------------|--------------------------|
--7-----8-----7--------5/-|--7-----8-----7--------5/-|--7-----8-----7--------5/-|
--7-----8-----7--------5/-|--7-----8-----7--------5/-|--7-----8-----7--------5/-|
--5-----6-----5--------3/-|--5-----6-----5--------3/-|--5-----6-----5--------3/-|
-----0-----0-----0--0-----|-----0-----0-----0--0-----|-----0-----0-----0--0-----|


                                                                                 
--------------------------|--------------------------|--------------------------|
--------------------------|--------------------------|--------------------------|
--7-----8-----7--------5/-|--7-----8-----7--------5/-|--7-----8-----7--------5/-|
--7-----8-----7--------5/-|--7-----8-----7--------5/-|--7-----8-----7--------5/-|
--5-----6-----5--------3/-|--5-----6-----5--------3/-|--5-----6-----5--------3/-|
-----0-----0-----0--0-----|-----0-----0-----0--0-----|-----0-----0-----0--0-----|


                                                              
--------------------------|----------------------------------|
--------------------------|----------------------------------|
--7-----8-----7--------5/-|--10--10--10--10--10--10--10--10--|
--7-----8-----7--------5/-|--10--10--10--10--10--10--10--10--|
--5-----6-----5--------3/-|--8---8---8---8---8---8---8---8---|
-----0-----0-----0--0-----|----------------------------------|


                                                                                         
----------------------------------|--------------------------|--------------------------|
----------------------------------|--------------------------|--------------------------|
--10--10--10--10--10--10--10--10--|--7-----8-----7--------5/-|--7-----8-----7--------5/-|
--10--10--10--10--10--10--10--10--|--7-----8-----7--------5/-|--7-----8-----7--------5/-|
--8---8---8---8---8---8---8---8---|--5-----6-----5--------3/-|--5-----6-----5--------3/-|
----------------------------------|-----0-----0-----0--0-----|-----0-----0-----0--0-----|


                                                                      
----------------------------------|----------------------------------|
----------------------------------|----------------------------------|
--10--10--10--10--10--10--10--10--|--10--10--10--10--10--10--10--10--|
--10--10--10--10--10--10--10--10--|--10--10--10--10--10--10--10--10--|
--8---8---8---8---8---8---8---8---|--8---8---8---8---8---8---8---8---|
----------------------------------|----------------------------------|


                                                                                         
--------------------------|--------------------------|----------------------------------|
--------------------------|--------------------------|----------------------------------|
--7-----8-----7--------5/-|--7-----8-----7--------5/-|--10--10--10--10--10--10--10--10--|
--7-----8-----7--------5/-|--7-----8-----7--------5/-|--10--10--10--10--10--10--10--10--|
--5-----6-----5--------3/-|--5-----6-----5--------3/-|--8---8---8---8---8---8---8---8---|
-----0-----0-----0--0-----|-----0-----0-----0--0-----|----------------------------------|


                                                                                         
----------------------------------|--------------------------|--------------------------|
----------------------------------|--------------------------|--------------------------|
--10--10--10--10--10--10--10--10--|--7-----8-----7--------5/-|--7-----8-----7--------5/-|
--10--10--10--10--10--10--10--10--|--7-----8-----7--------5/-|--7-----8-----7--------5/-|
--8---8---8---8---8---8---8---8---|--5-----6-----5--------3/-|--5-----6-----5--------3/-|
----------------------------------|-----0-----0-----0--0-----|-----0-----0-----0--0-----|


                                                                      
----------------------------------|----------------------------------|
----------------------------------|----------------------------------|
--10--10--10--10--10--10--10--10--|--10--10--10--10--10--10--10--10--|
--10--10--10--10--10--10--10--10--|--10--10--10--10--10--10--10--10--|
--8---8---8---8---8---8---8---8---|--8---8---8---8---8---8---8---8---|
----------------------------------|----------------------------------|


                                                                                 
--------------------------|--------------------------|--------------------------|
--------------------------|--------------------------|--------------------------|
--------------------------|--------------------------|--------------------------|
----------3--0----0----0--|----------3--0----0----0--|----------3--0----0----0--|
--x-x-x-x-3--0----0----0--|--x-x-x-x-3--0----0----0--|--x-x-x-x-3--0----0----0--|
--x-x-x-x-3--0----0----0--|--x-x-x-x-3--0----0----0--|--x-x-x-x-3--0----0----0--|


                                                                                 
--------------------------|--------------------------|--------------------------|
--------------------------|--------------------------|--------------------------|
--------------------------|--------------------------|--------------------------|
----------3--0----0----0--|----------3--0----0----0--|----------3--0----0----0--|
--x-x-x-x-3--0----0----0--|--x-x-x-x-3--0----0----0--|--x-x-x-x-3--0----0----0--|
--x-x-x-x-3--0----0----0--|--x-x-x-x-3--0----0----0--|--x-x-x-x-3--0----0----0--|


                                                                                 
--------------------------|------------------x--x----|--------------------------|
--------------------------|------------------x--x----|--------------------------|
--------------------------|------------------x--x----|--------------------------|
----------3--0----0----0--|----------3--0------------|----------3--0----0----0--|
--x-x-x-x-3--0----0----0--|--x-x-x-x-3--0------------|--x-x-x-x-3--0----0----0--|
--x-x-x-x-3--0----0----0--|--x-x-x-x-3--0------------|--x-x-x-x-3--0----0----0--|


                                                                                 
--------------------------|--------------------------|--------------------------|
--------------------------|--------------------------|--------------------------|
--------------------------|--------------------------|--------------------------|
----------3--0----0----0--|----------3--0----0----0--|----------3--0----0----0--|
--x-x-x-x-3--0----0----0--|--x-x-x-x-3--0----0----0--|--x-x-x-x-3--0----0----0--|
--x-x-x-x-3--0----0----0--|--x-x-x-x-3--0----0----0--|--x-x-x-x-3--0----0----0--|


                                                                                 
--------------------------|--------------------------|--------------------------|
--------------------------|--------------------------|--------------------------|
--------------------------|--------------------------|--------------------------|
----------3--0----0----0--|----------3--0----0----0--|----------3--0----0----0--|
--x-x-x-x-3--0----0----0--|--x-x-x-x-3--0----0----0--|--x-x-x-x-3--0----0----0--|
--x-x-x-x-3--0----0----0--|--x-x-x-x-3--0----0----0--|--x-x-x-x-3--0----0----0--|


                                                                                   
---------------------------|--------------|-------------------|-------------------|
---------------------------|--------------|-------------------|-------------------|
---------------------------|-----------5/-|--7----------------|----------------5/-|
----------3--0-------------|-----------5/-|--7----------------|----------------5/-|
--3-3-3-3-3--0----0--0--0--|--0--0--0--3/-|--5----------------|----------------3/-|
--3-3-3-3-3--0----0--0--0--|--0--0--0-----|-------------------|-------------------|


                                                                                
-------------------|-------------------|-------------------|-------------------|
-------------------|-------------------|-------------------|-------------------|
--7----------------|----------------5/-|--7----------------|----------------5/-|
--7----------------|----------------5/-|--7----------------|----------------5/-|
--5----------------|----------------3/-|--5----------------|----------------3/-|
-------------------|-------------------|-------------------|-------------------|


                                                                          
-------------------|------------------|----------------------------------|
-------------------|------------------|----------------------------------|
--7----------------|------------------|--10--10--10--10--10--10--10--10--|
--7----------------|------------------|--10--10--10--10--10--10--10--10--|
--5----------------|------------------|--8---8---8---8---8---8---8---8---|
-------------------|------------------|----------------------------------|


                                                                                         
----------------------------------|--------------------------|--------------------------|
----------------------------------|--------------------------|--------------------------|
--10--10--10--10--10--10--10--10--|--7-----8-----7--------5/-|--7-----8-----7--------5/-|
--10--10--10--10--10--10--10--10--|--7-----8-----7--------5/-|--7-----8-----7--------5/-|
--8---8---8---8---8---8---8---8---|--5-----6-----5--------3/-|--5-----6-----5--------3/-|
----------------------------------|-----0-----0-----0--0-----|-----0-----0-----0--0-----|


                                                                      
----------------------------------|----------------------------------|
----------------------------------|----------------------------------|
--10--10--10--10--10--10--10--10--|--10--10--10--10--10--10--10--10--|
--10--10--10--10--10--10--10--10--|--10--10--10--10--10--10--10--10--|
--8---8---8---8---8---8---8---8---|--8---8---8---8---8---8---8---8---|
----------------------------------|----------------------------------|


                                                                                         
--------------------------|--------------------------|----------------------------------|
--------------------------|--------------------------|----------------------------------|
--7-----8-----7--------5/-|--7-----8-----7--------5/-|--10--10--10--10--10--10--10--10--|
--7-----8-----7--------5/-|--7-----8-----7--------5/-|--10--10--10--10--10--10--10--10--|
--5-----6-----5--------3/-|--5-----6-----5--------3/-|--8---8---8---8---8---8---8---8---|
-----0-----0-----0--0-----|-----0-----0-----0--0-----|----------------------------------|


                                                                                         
----------------------------------|--------------------------|--------------------------|
----------------------------------|--------------------------|--------------------------|
--10--10--10--10--10--10--10--10--|--7-----8-----7--------5/-|--7-----8-----7--------5/-|
--10--10--10--10--10--10--10--10--|--7-----8-----7--------5/-|--7-----8-----7--------5/-|
--8---8---8---8---8---8---8---8---|--5-----6-----5--------3/-|--5-----6-----5--------3/-|
----------------------------------|-----0-----0-----0--0-----|-----0-----0-----0--0-----|


                                                                      
----------------------------------|----------------------------------|
----------------------------------|----------------------------------|
--10--10--10--10--10--10--10--10--|--10--10--10--10--10--10--10--10--|
--10--10--10--10--10--10--10--10--|--10--10--10--10--10--10--10--10--|
--8---8---8---8---8---8---8---8---|--8---8---8---8---8---8---8---8---|
----------------------------------|----------------------------------|


                                                                                 
--------------------------|--------------------------|--------------------------|
--------------------------|--------------------------|--------------------------|
--7-----8-----7--------5/-|--7-----8-----7--------5/-|--7-----8-----7--------5/-|
--7-----8-----7--------5/-|--7-----8-----7--------5/-|--7-----8-----7--------5/-|
--5-----6-----5--------3/-|--5-----6-----5--------3/-|--5-----6-----5--------3/-|
-----0-----0-----0--0-----|-----0-----0-----0--0-----|-----0-----0-----0--0-----|


                                                                                 
--------------------------|--------------------------|--------------------------|
--------------------------|--------------------------|--------------------------|
--7-----8-----7--------5/-|--7-----8-----7--------5/-|--7-----8-----7--------5/-|
--7-----8-----7--------5/-|--7-----8-----7--------5/-|--7-----8-----7--------5/-|
--5-----6-----5--------3/-|--5-----6-----5--------3/-|--5-----6-----5--------3/-|
-----0-----0-----0--0-----|-----0-----0-----0--0-----|-----0-----0-----0--0-----|


                                                                                 
--------------------------|--------------------------|--------------------------|
--------------------------|--------------------------|--------------------------|
--7-----8-----7--------5/-|--7-----8-----7--------5/-|--7-----8-----7--------5/-|
--7-----8-----7--------5/-|--7-----8-----7--------5/-|--7-----8-----7--------5/-|
--5-----6-----5--------3/-|--5-----6-----5--------3/-|--5-----6-----5--------3/-|
-----0-----0-----0--0-----|-----0-----0-----0--0-----|-----0-----0-----0--0-----|


                                                                                 
--------------------------|--------------------------|--------------------------|
--------------------------|--------------------------|--------------------------|
--7-----8-----7--------5/-|--7-----8-----7--------5/-|--7-----8-----7--------5/-|
--7-----8-----7--------5/-|--7-----8-----7--------5/-|--7-----8-----7--------5/-|
--5-----6-----5--------3/-|--5-----6-----5--------3/-|--5-----6-----5--------3/-|
-----0-----0-----0--0-----|-----0-----0-----0--0-----|-----0-----0-----0--0-----|


                                                                                 
--------------------------|--------------------------|--------------------------|
--------------------------|--------------------------|--------------------------|
--7-----8-----7--------5/-|--7-----8-----7--------5/-|--7-----8-----7--------5/-|
--7-----8-----7--------5/-|--7-----8-----7--------5/-|--7-----8-----7--------5/-|
--5-----6-----5--------3/-|--5-----6-----5--------3/-|--5-----6-----5--------3/-|
-----0-----0-----0--0-----|-----0-----0-----0--0-----|-----0-----0-----0--0-----|


                                                                                 
--------------------------|--------------------------|--------------------------|
--------------------------|--------------------------|--------------------------|
--7-----8-----7--------5/-|--7-----8-----7--------5/-|--7-----8-----7--------5/-|
--7-----8-----7--------5/-|--7-----8-----7--------5/-|--7-----8-----7--------5/-|
--5-----6-----5--------3/-|--5-----6-----5--------3/-|--5-----6-----5--------3/-|
-----0-----0-----0--0-----|-----0-----0-----0--0-----|-----0-----0-----0--0-----|


                                                                                 
--------------------------|--------------------------|--------------------------|
--------------------------|--------------------------|--------------------------|
--7-----8-----7--------5/-|--7-----8-----7--------5/-|--7-----8-----7--------5/-|
--7-----8-----7--------5/-|--7-----8-----7--------5/-|--7-----8-----7--------5/-|
--5-----6-----5--------3/-|--5-----6-----5--------3/-|--5-----6-----5--------3/-|
-----0-----0-----0--0-----|-----0-----0-----0--0-----|-----0-----0-----0--0-----|


                                                                                 
--------------------------|--------------------------|--------------------------|
--------------------------|--------------------------|--------------------------|
--7-----8-----7--------5/-|--7-----8-----7--------5/-|--7-----8-----7--------5/-|
--7-----8-----7--------5/-|--7-----8-----7--------5/-|--7-----8-----7--------5/-|
--5-----6-----5--------3/-|--5-----6-----5--------3/-|--5-----6-----5--------3/-|
-----0-----0-----0--0-----|-----0-----0-----0--0-----|-----0-----0-----0--0-----|


                                                                                 
--------------------------|--------------------------|--------------------------|
--------------------------|--------------------------|--------------------------|
--7-----8-----7--------5/-|--7-----8-----7--------5/-|--7-----8-----7--------5/-|
--7-----8-----7--------5/-|--7-----8-----7--------5/-|--7-----8-----7--------5/-|
--5-----6-----5--------3/-|--5-----6-----5--------3/-|--5-----6-----5--------3/-|
-----0-----0-----0--0-----|-----0-----0-----0--0-----|-----0-----0-----0--0-----|


                                                
--------------------------|-------------------||
--------------------------|-------------------||
--7-----8-----7--------5/-|--7----------------||
--7-----8-----7--------5/-|--7----------------||
--5-----6-----5--------3/-|--5----------------||
-----0-----0-----0--0-----|-------------------||
Tap to rate this tab
# A B C D E F G H I J K L M N O P Q R S T U V W X Y Z