Song name
# A B C D E F G H I J K L M N O P Q R S T U V W X Y Z

Rammstein - Jeder Lacht tab

Intro / Main riff
e|-------------------------------|   |-------------------------------|
B|-------------------------------|   |-------------------------------|
G|*-----------------------------*|   |-------------------------------|
D|*-4\--------------------------*|   |--------------------------1/7--|
A|--4\1---1---6h7h8-------8---6--|   |--1---1---1---1---1---1---1/7--|
D|--4\1---1---6h7h8---6---8---6--|   |--1---1---1---1---1---1---1/7--|
pm    .   .           .                 .   .   .   .   .   .


Verse
e|--------------------------------------------------------|
B|--------------------------------------------------------|
G|*------------------------------------------------------*|
D|*--------------------------------------------------1/7-*|x3
A|--1---1------1-1-1---1------1-1---1------1-1---1---1/7--|
D|--1---1------1-1-1---1------1-1---1------1-1---1---1/7--|
pm  .   .      . . .   .      . .   .      . .   .

e|-------------------------------------------------------------|
B|-------------------------------------------------------------|
G|-------------------------------------------------------------|
D|-------------------------------------------------------------|
A|--1---1------1-1-1---1------1-1---1---1---1---1---1---1---1--|
D|--1---1------1-1-1---1------1-1---1---1---1---1---1---1---1--|
pm  .   .      . . .   .      . .   .   .   .   .   .   .   .


Chorus
e|---------------------------------------------|   |-------------------|
B|---------------------------------------------|   |-------------------|
G|*-------------------------------------------*|   |-------------------|
D|*-9------6------4------2--------------------*|x3 |--9------6------1--|
A|--9------6------4------2------1---1---4---1--|   |--9------6------1--|
D|--9------6------4------2------1---1---4---1--|   |--9------6------1--|
pm                              .   .   .   .


Solo [ With WAH ]
e|-------------------------------------------------------|
B|--11-9-----11-9-----------------9-----11-9-----11-9----|
G|-------8--------8------8-8---11---8--------8--------8--|
D|--------------------11---------------------------------|
A|-------------------------------------------------------|
D|-------------------------------------------------------|

e|-------------------------9-----------------------------|
B|----------11-9--------11-----11-9--------------11-9----|
G|-----8-11------11-8---------------8------8-8--------8--|
D|--11----------------------------------11---------------|
A|-------------------------------------------------------|
D|-------------------------------------------------------|

e|-----9--------------------------------------------------------------------|
B|--11-----11-9-------------11-9--------------------------------------------|
G|--------------8------8-11------11-8---11h13p11h14p11...--- ---------------|
D|------------------11------------------------------------------------------|
A|--------------------------------------------------------------------------|
D|--------------------------------------------------------------------------|

e|---------------------------------------------|
B|---------------------------------------------|
G|-----------------------10---------10-8---8~--|
D|--4/6---4/6---4/8---------8-10-11------------|
A|---------------------------------------------|
D|---------------------------------------------|


Rhythm behind the solo
e|-------------------------------|
B|-------------------------------|
G|*-----------------------------*|
D|*-4\--------------------------*|x4
A|--4\1---1---6h7h8-------8---6--|
D|--4\1---1---6h7h8---6---8---6--|
pm    .   .           .

e|---------------------------------------------|   |-------------------|
B|---------------------------------------------|   |-------------------|
G|*-------------------------------------------*|   |-------------------|
D|*-9------6------4------2--------------------*|x3 |--9------6------1--|
A|--9------6------4------2------1---1---4---1--|   |--9------6------1--|
D|--9------6------4------2------1---1---4---1--|   |--9------6------1--|
pm                              .   .   .   .
Tap to rate this tab
# A B C D E F G H I J K L M N O P Q R S T U V W X Y Z