Song name
# A B C D E F G H I J K L M N O P Q R S T U V W X Y Z

Rammstein - Wut Will Nicht Sterben tab

ntro

1st guitar
e|-------------------------------------| |-----------------------------------|
B|-------------------------------------| |-----------------------------------|
G|--4/5-----4-------4-4/5-5------------| |*-5-----4-------4-4/5-5-----------*|
D|--2/3-----2-------2-2/3-3------------| |*-3-----2-------2-2/3-3-----------*|x3
A|-------------------------------------| |-----------------------------------|
D|------3-3---2-2-2---------3-3-3-3-3--| |----3-3---2-2-2---------3-3-3-3-3--|
pm      . .   . . .         . . . . .         . .   . . .         . . . . .

2nd guitar
e|-------------------------------------| |-----------------------------------|
B|-------------------------------------| |-----------------------------------|
G|-------------------------------------| |*---------------------------------*|
D|----3-----2-------2-2/3-3------------| |*-3-----2-------2-2/3-3-----------*|x3
A|----3-----2-------2-2/3-3------------| |--3-----2-------2-2/3-3------------|
D|----3-3-3-2-2-2-2-2-2/3-3-3-3-3-3-3--| |--3-3-3-2-2-2-2-2-2/3-3-3-3-3-3-3--|
pm      . .   . . .         . . . . .         . .   . . .         . . . . .


Verse

1st guitar
e|-----------------------------------|
B|-----------------------------------|
G|--5\4-----4-----4---5-----4--------|
D|--3\2-----2-----2---3-----2--------|x3
A|-----------------------------------|
D|------2-2---2-2---2---3-3---2-2-2--|
pm      . .   . .   .   . .   . . .

e|-------------------------------------------------------------------|
B|-------------------------------------------------------------------|
G|--5\4-----4-----4---5-----5-----5---4-----4-----4---5-----4--------|
D|--3\2-----2-----2---3-----3-----3---2-----2-----2---3-----2--------|
A|-------------------------------------------------------------------|
D|------2-2---2-2---2---3-3---3-3---3---2-2---2-2---2---3-3---2-2-2--|
pm      . .   . .   .   . .   . .   .   . .   . .   .   . .   . . .

2nd guitar
e|-----------------------------------|
B|-----------------------------------|
G|-----------------------------------|
D|--3\2-----2-----2---3-----2--------|x3
A|--3\2-----2-----2---3-----2--------|
D|--3\2-2-2-2-2-2-2-2-3-3-3-2-2-2-2--|
pm      . .   . .   .   . .   . . .

e|-------------------------------------------------------------------|
B|-------------------------------------------------------------------|
G|-------------------------------------------------------------------|
D|--3\2-----2-----2---3-----3-----3---2-----2-----2---3-----2--------|
A|--3\2-----2-----2---3-----3-----3---2-----2-----2---3-----2--------|
D|--3\2-2-2-2-2-2-2-2-3-3-3-3-3-3-3-3-2-2-2-2-2-2-2-2-3-3-3-2-2-2-2--|
pm      . .   . .   .   . .   . .   .   . .   . .   .   . .   . . .


Fill ? only at (2:01)
e|--------------------|
B|-------9h10p9-------|
G|--9h10--------10p9--|
D|--------------------|
A|--------------------|
D|--------------------|


This part is only played during the ?Rachegedanken von Demut ...? verse

1st guitar
e|-------------------------------------------------------------------|
B|-------------------------------------------------------------------|
G|----------4-----4---5-----4-------5\4-----4-------4-------4--------|
D|----------2-----2---3-----2-------3\2-----2-------2-------2--------|
A|-------------------------------------------------------------------|
D|------2-2---2-2---2---3-3---2-2-2-----2-2---3-3-3---2-2-2---2-2-2--|
pm      . .   . .   .   . .   . . .     . .   . . .   . . .   . . .

e|---------------------------------------------------------------------|
B|---------------------------------------------------------------------|
G|--5\4-----4-----4---5-----5-----5---4-----4-----4---5-----4-----4----|
D|--3\2-----2-----2---3-----3-----3---2-----2-----2---3-----2-----2----|
A|---------------------------------------------------------------------|
D|------2-2---2-2---2---3-3---3-3---3---2-2---2-2---2---3-3---2-2---2--|
pm      . .   . .   .   . .   . .   .   . .   . .   .   . .   . .   .

2nd guitar
e|-------------------------------------------------------------------|
B|-------------------------------------------------------------------|
G|-------------------------------------------------------------------|
D|--3\2-----2-----2---3-----2-------3\2-----2-------2-------2--------|
A|--3\2-----2-----2---3-----2-------3\2-----2-------2-------2--------|
D|--3\2-2-2-2-2-2-2-2-3-3-3-2-2-2-2-3\2-2-2-2-3-3-3-2-2-2-2-2-2-2-2--|
pm      . .   . .   .   . .   . . .     . .   . . .   . . .   . . .

e|---------------------------------------------------------------------|
B|---------------------------------------------------------------------|
G|---------------------------------------------------------------------|
D|--3\2-----2-----2---3-----3-----3---2-----2-----2---3-----2-----2----|
A|--3\2-----2-----2---3-----3-----3---2-----2-----2---3-----2-----2----|
D|--3\2-2-2-2-2-2-2-2-3-3-3-3-3-3-3-3-2-2-2-2-2-2-2-2-3-3-3-2-2-2-2-2--|
pm      . .   . .   .   . .   . .   .   . .   . .   .   . .   . .   .


Chorus
e|----------------------------------------------------|
B|----------------------------------------------------|
G|--------7---------7---------7-----------------------|
D|--7---5-7---7---5-7---7---5-7---7---3---2-----------|
A|--7---5-5---7---5-5---7---5-5---7---3---2-----------|
D|--7---5-----7---5-----7---5-----7---3---2------2-2--|
pm                                               . .


"Meine Wut ..."

1st guitar
e|-------------------------------------| |-----------------------------------|
B|-------------------------------------| |-----------------------------------|
G|--4/5-----4-------4-4/5-5------------| |*-5-----4-------4-4/5-5-----------*|
D|--2/3-----2-------2-2/3-3------------| |*-3-----2-------2-2/3-3-----------*|x3
A|-------------------------------------| |-----------------------------------|
D|------3-3---2-2-2---------3-3-3-3-3--| |----3-3---2-2-2---------3-3-3-3-3--|
pm      . .   . . .         . . . . .         . .   . . .         . . . . .

2nd guitar
e|-------------------------------------| |-----------------------------------|
B|-------------------------------------| |-----------------------------------|
G|-------------------------------------| |*---------------------------------*|
D|--2/3-----2-------2-2/3-3------------| |*-3-----2-------2-2/3-3-----------*|x3
A|--2/3-----2-------2-2/3-3------------| |--3-----2-------2-2/3-3------------|
D|--2/3-3-3-2-2-2-2-2-2/3-3-3-3-3-3-3--| |--3-3-3-2-2-2-2-2-2/3-3-3-3-3-3-3--|
pm      . .   . . .         . . . . .         . .   . . .         . . . . .


Solo
e|-----------------------------------------------------------------------------------|
B|-----------------------------------------------------------------------------------|
G|------------------------2-1--------------------------------------------------------|
D|------2---2-2p3---3---3-----2---2-2-3-2h3p2h3p2h3p2h3p2h3p2h3p2h3p2h3p2/9w6-7~--9--|
A|-----------------------------------------------------------------------------------|
D|--2--------------------------------------------------------------------------------|

    |At a very fast rate here
e|----------------------------------------------------------------------------------------------|
B|--4p0-5p0-4p0-5p0-7p0-5p0-4p0-5/12-13-15-13---13-15-13-12----12-13-15---13-15-13-12-------12--|
G|----------------------------------------------------------14-------------------------14-------|
D|----------------------------------------------------------------------------------------------|
A|----------------------------------------------------------------------------------------------|
D|----------------------------------------------------------------------------------------------|

e|--12/17---17---17---17---15---15---15---15-15-17~--|
B|---------------------------------------------------|
G|---------------------------------------------------|
D|---------------------------------------------------|
A|---------------------------------------------------|
D|---------------------------------------------------|

2nd guitar
e|-----------------------------------|
B|-----------------------------------|
G|*---------------------------------*|
D|*-2-----2-----2---3-----3-----3---*|
A|--2-----2-----2---3-----3-----3----|
D|--2-2-2-2-2-2-2-2-3-3-3-3-3-3-3-3--|
pm    . .   . .   .   . .   . .   .


Final riff

1st guitar
e|-----------------------------------|
B|-----------------------------------|
G|--4-----4-----4---5-----5-----5-5--|
D|--2-----2-----2---3-----3-----3-3--|x2
A|-----------------------------------|
D|----2-2---2-2---2---3-3---3-3------|
pm    . .   . .   .   . .   . .

e|-------------------------------------------------------------------|
B|-------------------------------------------------------------------|
G|--4-----4-----4---5-----5-----5---4-----4-----4---5-----5-----5-5--|
D|--2-----2-----2---3-----3-----3---2-----2-----2---3-----3-----3-3--| End
A|-------------------------------------------------------------------|
D|----2-2---2-2---2---3-3---3-3---3---2-2---2-2---2---3-3---3-3------|
pm    . .   . .   .   . .   . .   .   . .   . .   .   . .   . .

2nd guitar
e|-----------------------------------|
B|-----------------------------------|
G|-----------------------------------|
D|--2-----2-----2---3-----3-----3-3--|x2
A|--2-----2-----2---3-----3-----3-3--|
D|--2-2-2-2-2-2-2-2-3-3-3-3-3-3-3-3--|
pm    . .   . .   .   . .   . .

e|---------------------------------------------------------------------|
B|---------------------------------------------------------------------|
G|---------------------------------------------------------------------|
D|--3\2-----2-----2---3-----3-----3---2-----2-----2---3-----3-----3-3--| End
A|--3\2-----2-----2---3-----3-----3---2-----2-----2---3-----3-----3-3--|
D|--3\2-2-2-2-2-2-2-2-3-3-3-3-3-3-3-3-2-2-2-2-2-2-2-2-3-3-3-3-3-3-3-3--|
pm      . .   . .   .   . .   . .   .   . .   . .   .   . .   . .
Tap to rate this tab
# A B C D E F G H I J K L M N O P Q R S T U V W X Y Z