Song name
# A B C D E F G H I J K L M N O P Q R S T U V W X Y Z

Rammstein - Rein Ruas tab

Help us improve GuitareTab! Take a short survey!
Intro
e|-----------------|
B|-----------------|
G|-----------------|
D|--6---6---6---6--|
A|--6---6---6---6--|
D|--6---6---6---6--|


Main riff
e|-----------------------------------------------------------------|
B|-----------------------------------------------------------------|
G|o----------------------------------------------------------------|
D|o-3-----------2-----------3---5---3-----------2-----------3---5--|
A|--3-----------2-----------3---5---3-----------2-----------3---5--|
D|--3---2---2---2---2---2---3---5---3---2---2---2---2-2-2-2-3---5--|
pm      .   .       .   .               .   .       . . . .


e|-----------------------------------------------------------------|
B|-----------------------------------------------------------------|
G|----------------------------------------------------------------o|
D|--3-----------2-----------3---5---3-----------2-------6---6---6-o|x2
A|--3-----------2-----------3---5---3-----------2-------6---6---6--|
D|--3---2---2---2---2---2---3---5---3---2---2---2---2---6---6---6--|
pm      .   .       .   .               .   .       .


Verse 1
e|---------------------------------------------------------------------------------------|
B|---------------------------------------------------------------------------------------|
G|o-------------------------------------------------------------------------------------o|
D|o-1-----------0------1-----------0------1-----------0-----------1---3---1-----------0-o|x2
A|--1-----------0------1-----------0------1-----------0-----------1---3---1-----------0--|
D|--1---0---0---0------1---0---0---0------1---0---0---0---0---0---1---3---1---0---0---0--|
pm      .   .              .   .              .   .       .   .               .   .


e|-----------------|
B|-----------------|
G|-----------------|
D|----------1---3--|
A|----------1---3--|
D|------0---1---3--|
pm      .


Chorus
e|-----------------------------------------------------------------|
B|-----------------------------------------------------------------|
G|o----------------------------------------------------------------|
D|o-3-----------2-----------3---5---3-----------2-----------3---5--|
A|--3-----------2-----------3---5---3-----------2-----------3---5--|
D|--3---2---2---2---2---2---3---5---3---2---2---2---2-2-2-2-3---5--|
pm      .   .       .   .               .   .       . . . .


e|-----------------------------------------------------------------|
B|-----------------------------------------------------------------|
G|----------------------------------------------------------------o|
D|--3-----------2-----------3---5---3-----------2-------6---6---6-o|x2
A|--3-----------2-----------3---5---3-----------2-------6---6---6--|
D|--3---2---2---2---2---2---3---5---3---2---2---2---2---6---6---6--|
pm      .   .       .   .               .   .       .


Verse 2
e|---------------------------------------------------------------------------------------|
B|---------------------------------------------------------------------------------------|
G|---------------------------------------------------------------------------------------|
D|--1-----------0------1-----------0------1-----------0-----------1---3---1-----------0--|
A|--1-----------0------1-----------0------1-----------0-----------1---3---1-----------0--|
D|--1---0---0---0------1---0---0---0------1---0---0---0---0---0---1---3---1---0---0---0--|
pm      .   .              .   .              .   .       .   .               .   .


e|---------------------------------|
B|---------------------------------|
G|---------------------------------|
D|--1-----------0-----------1---3--|x4
A|--1-----------0-----------1---3--|
D|--1---0---0---0---0---0---1---3--|
pm      .   .       .   .


Bridge
e|------------------|
B|------------------|
G|------------------|
D|---7--------5-----|
A|---7--------5-----|
D|---7--------5-----|


e|----------------------------------|
B|----------------------------------|
G|o--------------------------------o|
D|o-10\9-------9-----------10---12-o|x2
A|--10\9-------9-----------10---12--|
D|--10\9---9---9---9---9---10---12--|
pm         .       .   .


e|------------------|
B|------------------|
G|------------------|
D|---7--------5-----|
A|---7--------5-----|
D|---7--------5-----|


e|----------------------------------|
B|----------------------------------|
G|o--------------------------------o|
D|o-10\9-------9-----------10---12-o|x3
A|--10\9-------9-----------10---12--|
D|--10\9---9---9---9---9---10---12--|
pm         .       .   .


e|----------------------------------|
B|----------------------------------|
G|----------------------------------|
D|--10\9-------9-------9---10---12--|
A|--10\9-------9-------9---10---12--|
D|--10\9---9---9---9---9---10---12--|
pm         .       .


Clean part  <1:58>
e|--------------------------------------------|
B|--12------------------13---12------15---13--|
G|-------12---14---11-----------14------------|
D|--------------------------------------------|
A|--------------------------------------------|
D|--------------------------------------------|


Prelude to the solo
Solo guitar
[ With \"WAH-WAH\" ]
e|---------------------------------------------------|
B|---------------------------------------------------|
G|o-13-13-13-13-13-13-13-13-13-13-13-13-13-13-13-13-o|
D|o--x--x--x--x--x--x--x--x--x--x--x--x--x--x--x--x-o|x2
A|--11-11-11-11-11-11-11-11-11-11-11-11-11-11-11-11--|
D|---------------------------------------------------|


Rhythm guitar
e|---------------------------|
B|---------------------------|
G|---------------------------|
D|--6---6------6---6------6--|
A|--6---6------6---6------6--|
D|--6---6------6---6------6--|


Solo
Solo guitar
[ With \"WAH-WAH\" ]
e|----------------------------------------------------------------------------------|
B|----------------------------------------------------------------------------------|
G|o-14-13-13-14-13-13-14-13-14-13-13-9~---14-13-13-14-13-13-14-13-14-13-13-14/17~--o|
D|o--x--x--x--x--x--x--x--x--x--x--x-x-----x--x--x--x--x--x--x--x--x--x--x--x--x---o|x2
A|--12-11-11-12-11-11-12-11-12-11-11-7----12-11-11-12-11-11-12-11-12-11-11-12/15~---|
D|----------------------------------------------------------------------------------|


Rhythm guitars
e|-----------------------------------------------------------------|
B|-----------------------------------------------------------------|
G|o----------------------------------------------------------------|
D|o-3-----------2-----------3---5---3-----------2-----------3---5--|
A|--3-----------2-----------3---5---3-----------2-----------3---5--|
D|--3---2---2---2---2---2---3---5---3---2---2---2---2-2-2-2-3---5--|
pm      .   .       .   .               .   .       . . . .


e|-----------------------------------------------------------------|
B|-----------------------------------------------------------------|
G|----------------------------------------------------------------o|
D|--3-----------2-----------3---5---3-----------2-------6---6---6-o|x2
A|--3-----------2-----------3---5---3-----------2-------6---6---6--|
D|--3---2---2---2---2---2---3---5---3---2---2---2---2---6---6---6--|
pm      .   .       .   .               .   .       .


Riff after the solo
e|-------------------------------|
B|-------------------------------|
G|o-----------------------------o|
D|o-6\5-------5-----------6---8-o|x8
A|--6\5-------5-----------6---8--|
D|--6\5---5---5---5---5---6---8--|
pm        .       .   .


Ending
e|-----------------------------------------------------------------|
B|-----------------------------------------------------------------|
G|o----------------------------------------------------------------|
D|o-3-----------2-----------3---5---3-----------2-----------3---5--|
A|--3-----------2-----------3---5---3-----------2-----------3---5--|
D|--3---2---2---2---2---2---3---5---3---2---2---2---2-2-2-2-3---5--|
pm      .   .       .   .               .   .       . . . .


e|-----------------------------------------------------------------|
B|-----------------------------------------------------------------|
G|----------------------------------------------------------------o|
D|--3-----------2-----------3---5---3-----------2-------6---6---6-o|x2
A|--3-----------2-----------3---5---3-----------2-------6---6---6--|
D|--3---2---2---2---2---2---3---5---3---2---2---2---2---6---6---6--|
pm      .   .       .   .               .   .       .
Related for Rein Ruas tab