Song name
# A B C D E F G H I J K L M N O P Q R S T U V W X Y Z

Rammstein - Hitler tab

Band: Rammstein
Album: Sonne
Song name: Hitler
Tuning: DADGBE

ntro  
e|-----------------------------------------------------------------|  
B|-----------------------------------------------------------------|  
G|*---------------------------------------------------------------*|  
D|*-0-0-6-0-6-5-0---0-0-6-0-6-0---0-0-6-0-6-5-0---0-0-6-0-6-5-5-5-*|x2  
A|--0-0-6-0-6-5-0---0-0-6-0-6-0---0-0-6-0-6-5-0---0-0-6-0-6-5-5-5--|  
D|--0-0-6-0-6-5-0---0-0-6-0-6-0---0-0-6-0-6-5-0---0-0-6-0-6-5-5-5--|  


Verse  
e|-------------------------------|  
B|-------------------------------|  
G|-------------------------------|  
D|--0-0-6-0-6-5-0---0-0-6-0-6-0--|  
A|--0-0-6-0-6-5-0---0-0-6-0-6-0--|  
D|--0-0-6-0-6-5-0---0-0-6-0-6-0--|  


Chorus  
1st guitar  
e|-----------------|   |--------------------|  
B|-----------------|   |--------------------|  
G|--4--/9---7---5--|   |--9---11---12---11--|  
D|--4--/9---7---5--|x2 |--9----9---12---11--|x2  
A|--2--/7---5---3--|   |--7----9---10----9--|  
D|-----------------|   |--------------------|  


2nd guitar  
e|-----------------|   |-----------------|  
B|-----------------|   |-----------------|  
G|--4-----------5--|   |------4----------|  
D|--4---2---0---5--|x2 |--2---4---5---4--|x2  
A|--2---2---0---3--|   |--2---2---5---4--|  
D|------2---0------|   |--2-------5---4--| 


Tap to rate this tab
 
# A B C D E F G H I J K L M N O P Q R S T U V W X Y Z