Song name
# A B C D E F G H I J K L M N O P Q R S T U V W X Y Z

Rammstein - Stein Um Stien tab

Artist:    Rammstein
Song:      Stein um Stein (Solo)
Album:     Reise, Reise
Tabbed by: scratchNARD
Tuning:    Drop D
this is a great Solo play it with a wah pedal
and push the pedal down to raise the pitch of every note (every note)

Key:
 \=Slide
 ~=Vibrato
 ^=pust down Wah pedal
|-------------------------------------|
|---15----15----15----15----15---15---|
|-------------------------------------|
|-------------------------------------|
|-------------------------------------|
|-------------------------------------|
     ^     ^     ^     ^     ^    ^
|-------------------------------------|
|---15----15----15----15----15---15---|
|-------------------------------------|
|-------------------------------------|
|-------------------------------------|
|-------------------------------------|
     ^     ^     ^     ^     ^    ^
|--------------------------------------|
|---15----15----15----15---15\18-18~---|
|--------------------------------------|
|--------------------------------------|
|--------------------------------------|
|--------------------------------------|
     ^     ^     ^     ^          ^
|---13-----------------|
|------14-12-14-9-10---|
|----------------------|
|----------------------|
|----------------------|
|----------------------|
    ^   ^    ^     ^
|-------------------------------------|
|---15----15----15----15----15---15---|
|-------------------------------------|
|-------------------------------------|
|-------------------------------------|
|-------------------------------------|
     ^    ^     ^      ^     ^    ^
|--------------------------0h19~---
|---15----15----15----15-----------
|----------------------------------
|----------------------------------
|----------------------------------
|----------------------------------
     ^     ^     ^    ^      ^
|--------------------------------------|
|---15----15----15----15---15\18-18~---|
|--------------------------------------|
|--------------------------------------|
|--------------------------------------|
|--------------------------------------|
     ^     ^     ^     ^         ^
|---13-----------------|
|------14-12-14-9-10---|
|----------------------|
|----------------------|
|----------------------|
|----------------------|
    ^   ^    ^     ^


Ok...now despite what everybody think's they know Rammstein 
hardly ever plays in Drop C there isn't a single song on 
Reise, Reise (2004) that is in Drop C nor in Rosenrot 
if there are bar chords in a rammstein song it's Drop D.
Tap to rate this tab
 
# A B C D E F G H I J K L M N O P Q R S T U V W X Y Z