Song name
# A B C D E F G H I J K L M N O P Q R S T U V W X Y Z

Ramona Falls - I Say Fever tab

www.ramonafalls.com
http://www.barsuk.com/shop/ramonafalls

I Say Fever
Ramona Falls

Standard Tuning

Theres only guitar in the beginning of this song, and this is how I play it...

b-bend
p-pull off

Intro:
e-------------------------------------------------------------------|
B-------------------------------------------------------------------|
G-------------------------------------------------------------------|
D----------------------------------------------------------0--0--0--|
A----------------------------------------------------------0--0--0--|
E--0--0--0-3bp---0--0--0-3bp---0--0--0-3bp---0--0--0-3bp------------|

This played sloppily and let ring:
--12\\\\\\0------0----12\\\\\\0----------------------|
--12\\\\\\0--0---8----12\\\\\\0--0---12--------------|
--12\\\\\\0--0---9----12\\\\\\0--0---12--------------| X2 let ring even more
--12\\\\\\2--0---9----12\\\\\\2--0---12--------------|    on second time.
--12\\\\\\2-----------12\\\\\\2----------------------|
----------0-------------------0----------------------|

When you play this sloppily, the unintentional extra notes will add distortion and it 
sound like how he plays it in the song.
Tap to rate this tab
 
# A B C D E F G H I J K L M N O P Q R S T U V W X Y Z