Ramona Falls - Salt Sack tab

Tuned 2 half-steps down (D tuning)

d-----------------------------------------------------------|
A--9--10-9--9---9------11--12--11--9------------------------|
F--9--9--9--11--9------11--11--11--11--11-------------------|
C--11-------11--11-----11--------------11-------------------|
G--11------------------9------------------------------------|
D--9--------------------------------------------------------|

---------------9--------------|
---11--12--12--12---(5)---9---|
---11--11--11--11----6----9---|
---11----------------6----9---|
---9-----------------4----7---|
---------------------4--------|

Repeat above
=======================================================================


-----------------------------|
-----------------------------|
---8-----6-----8-----6-------|
---9-----7-----9-----7-------|
---9-----7-----9-----7-------|
---7-----5-----7-----5-------|


---0-----0-----2-----0--------|
---0-----2-----4-----2---2----|
---1-----2-----4-----2---2----|
---2-----2-----4-----2---4----|
---2-----0-----2-----0---4----|
---0-----0---------------2----|

Repeat from beginning.
======================================================================
Tap to rate this tab
 
# A B C D E F G H I J K L M N O P Q R S T U V W X Y Z