Song name
# A B C D E F G H I J K L M N O P Q R S T U V W X Y Z

Ramona Falls - The Darkest Day tab

Ramona Falls
The Darkest Day
Intuit

Standard tuning

e---------------------------------------------------------------------|
B----------0---------------0--------------2---------------0-----------|
G------2------2---2----2------2-------2------2---2-----1-----1---2----|
D--2/4---4------4-----------------0-2---2------2---------2-----2------|
A--------------------4---4------4-------------------------------------|
E----------------------------------------------------0----------------|


-----------------------------------------------------------------------|
-----3---3---3---3---------------------2---2---2---2-------------------|
-----4---4---4---4----2---2---2---2----2---2---2---2---1---1---1---1---|
----------------------4---4---4---4--------------------2---2---2---2---|
---2---2---2---2---------------------0---0---0---0---------------------|
--------------------2---2---2---2--------------------0---0---0---0-----|
   Bm                Fm               A               E


========================================================================

----------------------------------|
---0---------------0--------------|
-------2-------2-------2----------|
-----1---1---1---1---1---1---1----|
-----------2---------------2---2--|
----------------------------------|

========================================================================

--------------------------------------------------------------------|
----2---2---2---2---2---2---2---2---2---2---2---2---2---2---2-------|
----2---2---2---2---2---2---2---2---2---2---2---2---2---2---2-------|
--0---0---0---0---2---2---2---2---4---4---4---4---4---4---4---------|
--------------------------------------------------------------------|
--------------------------------------------------------------------|

--------------------------------------------------------------------|
----2---2---2---2---2---2---2---2---2---2---2---2----0---0---0---0--|
----2---2---2---2---2---2---2---2---2---2---2---2----2---2---2---2--|
--0---0---0---0---2---2---2---2---4---4---4---4------1---1---1---1--|
---------------------------------------------------2---2---2---2----|
--------------------------------------------------------------------|
Tap to rate this tab
 
# A B C D E F G H I J K L M N O P Q R S T U V W X Y Z