Ramona Falls - Bellyfulla tab

Ramona Falls
Bellyfulla
Intuit

Tuned two half-steps down (D tuning)

d----------------------------|
A---5------------------------|
F------4--6---------------4--|
C------------4-2-2--2--2--2--|
G---4------------0--2--4-----|
D------4--5--2-2-------------|

-----------------------------|
--4--5-----------------------|
--------4--6---------------4-|
--------------4-2-2--2--2--2-|
--2--4------------0--2--4----|
--------4--5--2-2------------|repeat

=====================================================================

-------------------------(9)(9)-| [9's played after repeat]
--10-10---9--9---4--4-5--10-10--|
--------------------------------|
--------------------------7--7--|
---7--7---7--7---2--2-2---------|
--------------------------------|

---------------------|
---5-5-5-5-7-7-4-5-5-|
---------------------|
---------------------|
---------------2-2-4-|
---4-4-4-4-5-5-------|
Tap to rate this tab
 
# A B C D E F G H I J K L M N O P Q R S T U V W X Y Z