Song name
# A B C D E F G H I J K L M N O P Q R S T U V W X Y Z

Ramona Falls - I Say Fever tab

Before she met…
E)--------0-----------0------------0-------------0-|
B)--------0-----------0------------0-------------0-|
G)--------4-----------4------------4-------------4-|
D)--------0-----------0------------0-------------0-|
A)-----3-2---------3-2---------3-2-----------3-2---|
E)-0-0---3--0-0-0---3--0-0-0—3—0-0-0---3-----------|

…five years…
E)--------0-----------0------------0-------------0-0-0-|
B)--------0-----------0------------0-------------3-3-3-|
G)--------4-----------4------------4-------------4-4-4-|
D)--------0-----------0------------0-------------4-4-4-|
A)--------3-----------3------------3-------------------|
E)-0-0---3--0-0-0--3--0-0-0—3—0-0-0--------------------|

X2

The below chord is strummed the same way as above,
and starts when he says "I ask my neighbors, they said its ..."

E)---0
B)---1
G)---2
D)---3
A)---3
E)—--0

… wise to wait five years

E)---0
B)---1
G)---0
D)---2
A)---3
E)—--3

And then repeat it from the beginning.
Tap to rate this tab
# A B C D E F G H I J K L M N O P Q R S T U V W X Y Z