Guitaretab - guitar tabs
Song name
# A B C D E F G H I J K L M N O P Q R S T U V W X Y Z

Ramones - Got Alot To Say tab

 Intro/verse 1&2
E-----------------------------------|
B-----------------------------------|
G-----------------------------------|  (Repeat 4x)
D--5-5-5-5--11-11-11-11-11-11-11-11-|
A--5-5-5-5--11-11-11-11-11-11-11-11-|
E--3-3-3-3--9--9--9--9--9--9--9--9--|

 Chorus
[ Tab from: http://www.guitaretab.com/r/ramones/115135.html ]
E---------------------------------------------------------|
B---------------------------------------------------------|
G--9-9-9-9-9-------------------9-9-9-9-9------------------|
D--9-9-9-9-9--9-9-9-9-9-9-9-9--9-9-9-9-9--7-7-7-7-7-7-7-7-|
A--7-7-7-7-7--9-9-9-9-9-9-9-9--7-7-7-7-7--7-7-7-7-7-7-7-7-|
E--7-7-7-7-7--7-7-7-7-7-7-7-7--7-7-7-7-7--5-5-5-5-5-5-5-5-|
Related for Got Alot To Say tab