Song name
# A B C D E F G H I J K L M N O P Q R S T U V W X Y Z

Ramones - Do You Wanna Dance tab

This is a kick ass Ramones song
Tabbed by: J.A.R. (Jacob Lambros)
E-mail: jason_andrew_relva@msn.com

Verse/Chorus                     play twice
e|----------------5--5-5-5-5-5-5-----------------------------------------------|
B|----------------7--7-7-7-7-7-7-----------------------------------------------|
G|----------------7--7-7-7-7-7-7-----------------------------------------------|
D|-7--7-7-7-7-7-7-7--7-7-7-7-7-7-----------------------------------------------|
A|-7--7-7-7-7-7-7-5--5-5-5-5-5-5-----------------------------------------------|
E|-5--5-5-5-5-5-5--------------------------------------------------------------|

   1  2 & 3 & 4 & 1  2 & 3 & 4 &

e|---------------------------------------------------------------------------|
B|---------------------------------------------------------------------------|
G|---------------------------------------------------------------------------|
D|-7--7-7-7-7-7-7-2--2-2-2-2-2-2-7--7-7-7-7-7-7-7-7-7-7-7-7-7-7--------------|
A|-7--7-7-7-7-7-7-2--2-2-2-2-2-2-7--7-7-7-7-7-7-7-7-7-7-7-7-7-7--------------|
E|-5--5-5-5-5-5-5-0--0-0-0-0-0-0-5--5-5-5-5-5-5-5-5-5-5-5-5-5-5--------------|
   1  2 & 3 & 4 & 1  2 & 3 & 4 & 1  2 & 3 & 4 & 1 & 2 & 3 & 4 &
That's pretty much it, just reapeat this a bunch of times and then at some parts play 
bottom part with the volume turned down a little, listen and you'll figure it out

                     play 4x     End on
e|------------------------------------------------------------------------------|
B|------------------------------------------------------------------------------|
G|------------------------------------------------------------------------------|
D|-2-2-2-2-2-2-2-2---------------------------7----------------------------------|
A|-2-2-2-2-2-2-2-2---------------------------7----------------------------------|
E|-0-0-0-0-0-0-0-0---------------------------5----------------------------------|
   1 & 2 & 3 & 4 &
Tap to rate this tab
# A B C D E F G H I J K L M N O P Q R S T U V W X Y Z