Song name
# A B C D E F G H I J K L M N O P Q R S T U V W X Y Z

Ramones - Bonzo Goes To Bitburg tab

My favourite Ramones song hope you like it!
Tabbed by: James 
Any Q's email: jamescore@hotmail.com

Intro
  G F C G
e-----------|
B-----------|
G-----5-----|
D-5-3-5-5---|
A-5-3-3-5---|
E-3-1---3---|

Verse 1
  F                C                G
e--------------------------------------------------------------------|
B--------------------------------------------------------------------|
G------------------5555555555555555----------------------------------|
D-3333333333333333-5555555555555555-55555555555555555555555555555555-| x2
A-3333333333333333-3333333333333333-55555555555555555555555555555555-|
E-1111111111111111------------------33333333333333333333333333333333-|

Pre-Chorus 1
  A                G        F
e------------------------------------|
B------------------------------------|
G------------------------------------|
D-7777777777777777-55555555-33333333-| x3
A-7777777777777777-55555555-33333333-|
E-5555555555555555-33333333-11111111-|

third time keep playing the F until

Chorus 1
  C                G        F
e------------------------------------|
B------------------------------------|
G-5555555555555555-------------------|
D-5555555555555555-55555555-33333333-|
A-3333333333333333-55555555-33333333-| x4
E------------------33333333-11111111-|

fourth time dont play the F just keep playing the G

Verse 2
  F                C                G
e--------------------------------------------------------------------|
B--------------------------------------------------------------------|
G------------------5555555555555555----------------------------------|
D-3333333333333333-5555555555555555-55555555555555555555555555555555-| x2
A-3333333333333333-3333333333333333-55555555555555555555555555555555-|
E-1111111111111111------------------33333333333333333333333333333333-|

Pre-Chorus 2
  A                G        F
e------------------------------------|
B------------------------------------|
G------------------------------------|
D-7777777777777777-55555555-33333333-| x3
A-7777777777777777-55555555-33333333-|
E-5555555555555555-33333333-11111111-|

third time keep playing the F until

Chorus 2
  C                G        F
e------------------------------------|
B------------------------------------|
G-5555555555555555-------------------|
D-5555555555555555-55555555-33333333-|
A-3333333333333333-55555555-33333333-| x4
E------------------33333333-11111111-|

fourth time dont play the F just keep playing the G

Interlude
  D A G
e-------|
B-------|
G-7-----|
D-7-7-5-| x2
A-5-7-5-|
E---5-3-|

Final Verse
  D                A        G
e------------------------------------|
B------------------------------------|
G-7777777777777777-------------------|
D-7777777777777777-77777777-55555555-| x2
A-5555555555555555-77777777-55555555-|
E------------------55555555-33333333-|

Final Chorus
  D                A        G
e------------------------------------|
B------------------------------------|
G-7777777777777777-------------------|
D-7777777777777777-77777777-55555555-| x4
A-5555555555555555-77777777-55555555-|
E------------------55555555-33333333-|

Enjoy! =D
Tap to rate this tab
 
# A B C D E F G H I J K L M N O P Q R S T U V W X Y Z