Song name
# A B C D E F G H I J K L M N O P Q R S T U V W X Y Z

Ramones - Have You Ever Seen The Rain tab

HAVE YOU EVER SEEN THE RAIN - The Ramones

By: T.J. Tucker [tj@tre2.net]


Intro:
e|---------------------------------------------------------------------------|
B|---------------------------------------------------------------------------|
G|-7-----9-------------------------------------------------------------------|
D|-7-----9-----7-------------------------------------------------------------|
A|-5-----7-----7-------------------------------------------------------------|
E|-------------5-------------------------------------------------------------|
  (D)  	(E)   (A)

Main:
e|---------------------------------------------------------------------------|
B|---------------------------------------------------------------------------|
G|---------------------------------------------------------------------------|
D|-7-------------------------------------------------------------------------|
A|-7-------------------------------------------------------------------------|
E|-5-------------------------------------------------------------------------|
  (A)
  Someone told me long ago, there's a calm before the storm

e|---------------------------------------------------------------------------|
B|---------------------------------------------------------------------------|
G|---9-----------------------------------------------------------------------|
D|---9--------------------------7--------------------------------------------|
A|---7--------------------------7--------------------------------------------|
E|------------------------------5--------------------------------------------|
    (E)                        (A)
  I know and its been coming for some time

e|---------------------------------------------------------------------------|
B|---------------------------------------------------------------------------|
G|---------------------------------------------------------------------------|
D|-7-------------------------------------------------------------------------|
A|-7-------------------------------------------------------------------------|
E|-5-------------------------------------------------------------------------|
  (A)
  When its over so they say it'll rain a sunny day  

e|---------------------------------------------------------------------------|
B|---------------------------------------------------------------------------|
G|---9-----------------------------------------------------------------------|
D|---9-----------------------7-----------------------------------------------|
A|---7-----------------------7-----------------------------------------------|
E|---------------------------5-----------------------------------------------|
    (E)                     (A)
  I know, shinin' down like water

Chorus:
e|---------------------------------------------------------------------------|
B|---------------------------------------------------------------------------|
G|-7---------9---------------------------------------------------------------|
D|-7---------9--------------7----6----4----2---------------------------------|
A|-5---------7--------------7----6----4----2---------------------------------|
E|--------------------------5----4----2----0---------------------------------|
  (D)       (E)            (A)  (Ab) (F#) (F) 
  I want to know, have you ever seen the rain             

e|---------------------------------------------------------------------------|
B|---------------------------------------------------------------------------|
G|-7---------9---------------------------------------------------------------|
D|-7---------9--------------7----6----4----2---------------------------------|
A|-5---------7--------------7----6----4----2---------------------------------|
E|--------------------------5----4----2----0---------------------------------|
  (D)       (E)            (A)  (Ab) (F#) (F) 
  I want to know, have you ever seen the rain   

e|---------------------------------------------------------------------------|
B|---------------------------------------------------------------------------|
G|-7------9------------------------------------------------------------------|
D|-7------9-------------7----------------------------------------------------|
A|-5------7-------------7----------------------------------------------------|
E|----------------------5----------------------------------------------------|
  (D)    (E)           (A)
  Comin' down on a sunny day 

Chorus:
e|---------------------------------------------------------------------------|
B|---------------------------------------------------------------------------|
G|---------------------------------------------------------------------------|
D|-7-------------------------------------------------------------------------|
A|-7-------------------------------------------------------------------------|
E|-5-------------------------------------------------------------------------|
  (A)
  Yesterday and days before, sun is cold and rain is hot

e|---------------------------------------------------------------------------|
B|---------------------------------------------------------------------------|
G|---9-----------------------------------------------------------------------|
D|---9--------------------------7--------------------------------------------|
A|---7--------------------------7--------------------------------------------|
E|------------------------------5--------------------------------------------|
    (E)                        (A)
  I know, been that way for all my time

e|---------------------------------------------------------------------------|
B|---------------------------------------------------------------------------|
G|---------------------------------------------------------------------------|
D|-7-------------------------------------------------------------------------|
A|-7-------------------------------------------------------------------------|
E|-5-------------------------------------------------------------------------|
  (A)
  'Til forever on it goes, through the circle fast and slow

e|---------------------------------------------------------------------------|
B|---------------------------------------------------------------------------|
G|---9-----------------------------------------------------------------------|
D|---9-----------------------7-----------------------------------------------|
A|---7-----------------------7-----------------------------------------------|
E|---------------------------5-----------------------------------------------|
    (E)                     (A)
  I know, and I can't stop, I wonder

Chorus:
e|---------------------------------------------------------------------------|
B|---------------------------------------------------------------------------|
G|-7---------9---------------------------------------------------------------|
D|-7---------9--------------7----6----4----2---------------------------------|
A|-5---------7--------------7----6----4----2---------------------------------|
E|--------------------------5----4----2----0---------------------------------|
  (D)       (E)            (A)  (Ab) (F#) (F) 
  I want to know, have you ever seen the rain             

e|---------------------------------------------------------------------------|
B|---------------------------------------------------------------------------|
G|-7---------9---------------------------------------------------------------|
D|-7---------9--------------7----6----4----2---------------------------------|
A|-5---------7--------------7----6----4----2---------------------------------|
E|--------------------------5----4----2----0---------------------------------|
  (D)       (E)            (A)  (Ab) (F#) (F) 
  I want to know, have you ever seen the rain   

e|---------------------------------------------------------------------------|
B|---------------------------------------------------------------------------|
G|-7------9------------------------------------------------------------------|
D|-7------9-------------7----------------------------------------------------|
A|-5------7-------------7----------------------------------------------------|
E|----------------------5----------------------------------------------------|
  (D)    (E)           (A)
  Comin' down on a sunny day 

Solo:
e|---------------------------------------------------------------------------|
B|---------------------------------------------------------------------------|
G|-7---------9---------------------------------------------------------------|
D|-7---------9--------------7----6----4----2---------------------------------|
A|-5---------7--------------7----6----4----2---------------------------------|
E|--------------------------5----4----2----0---------------------------------|
  (D)       (E)            (A)  (Ab) (F#) (F) 

e|---------------------------------------------------------------------------|
B|---------------------------------------------------------------------------|
G|-7---------9---------------------------------------------------------------|
D|-7---------9--------------7----6----4----2---------------------------------|
A|-5---------7--------------7----6----4----2---------------------------------|
E|--------------------------5----4----2----0---------------------------------|
  (D)       (E)            (A)  (Ab) (F#) (F) 

e|---------------------------------------------------------------------------|
B|---------------------------------------------------------------------------|
G|-7-----9-------------------------------------------------------------------|
D|-7-----9-----7-------------------------------------------------------------|
A|-5-----7-----7-------------------------------------------------------------|
E|-------------5-------------------------------------------------------------|
  (D)  	(E)   (A)


Main:
e|---------------------------------------------------------------------------|
B|---------------------------------------------------------------------------|
G|---------------------------------------------------------------------------|
D|-7-------------------------------------------------------------------------|
A|-7-------------------------------------------------------------------------|
E|-5-------------------------------------------------------------------------|
  (A)
  Someone told me long ago, there's a calm before the storm

e|---------------------------------------------------------------------------|
B|---------------------------------------------------------------------------|
G|---9-----------------------------------------------------------------------|
D|---9--------------------------7--------------------------------------------|
A|---7--------------------------7--------------------------------------------|
E|------------------------------5--------------------------------------------|
    (E)                        (A)
  I know, and its been coming for some time

e|---------------------------------------------------------------------------|
B|---------------------------------------------------------------------------|
G|---------------------------------------------------------------------------|
D|-7-------------------------------------------------------------------------|
A|-7-------------------------------------------------------------------------|
E|-5-------------------------------------------------------------------------|
  (A)
  When its over so they say, it'll rain a sunny day  

e|---------------------------------------------------------------------------|
B|---------------------------------------------------------------------------|
G|---9-----------------------------------------------------------------------|
D|---9-----------------------7-----------------------------------------------|
A|---7-----------------------7-----------------------------------------------|
E|---------------------------5-----------------------------------------------|
    (E)                     (A)
  I know, shinin' down like water

Chorus:
e|---------------------------------------------------------------------------|
B|---------------------------------------------------------------------------|
G|-7---------9---------------------------------------------------------------|
D|-7---------9--------------7----6----4----2---------------------------------|
A|-5---------7--------------7----6----4----2---------------------------------|
E|--------------------------5----4----2----0---------------------------------|
  (D)       (E)            (A)  (Ab) (F#) (F) 
  I want to know, have you ever seen the rain             

e|---------------------------------------------------------------------------|
B|---------------------------------------------------------------------------|
G|-7---------9---------------------------------------------------------------|
D|-7---------9--------------7----6----4----2---------------------------------|
A|-5---------7--------------7----6----4----2---------------------------------|
E|--------------------------5----4----2----0---------------------------------|
  (D)       (E)            (A)  (Ab) (F#) (F) 
  I want to know, have you ever seen the rain   

e|---------------------------------------------------------------------------|
B|---------------------------------------------------------------------------|
G|-7------9------------------------------------------------------------------|
D|-7------9-------------7----------------------------------------------------|
A|-5------7-------------7----------------------------------------------------|
E|----------------------5----------------------------------------------------|
  (D)    (E)           (A)
  Comin' down on a sunny day 

Ends on (A)

Any comments, changes, suggestions, quetsions, e-mail me. [tj@tre2.net]
Tap to rate this tab
# A B C D E F G H I J K L M N O P Q R S T U V W X Y Z