Guitaretab - guitar tabs
Song name
# A B C D E F G H I J K L M N O P Q R S T U V W X Y Z

Ramones - I Wanna Live tab

                                                         The Ramones
                      I Wanna Live (As heard on Loud, Fast Ramones: Their Toughest Hits)

Intro Rhythm guitar

   Emin     Gmaj     Csus.2  Dmaj
e/------------------------------/
B/--------------------------3---/
G/--------------------0--2---2--/   X4
D/----2-------0-----2--0--------/
A/--2---2---2---2-3-------------/
E/-0-------3---------------------/

Lead guitar fill during beginning of second part of intro.
e/-7-5-3-7------------------------------------/B/--------------------------------------------/
G/--------------------------------------------/     This part is not perfect, but, if you can 
D/-----------9-7------------------------------/     alter it and make it sound better, great.
A/----------------10-7------------------------/
E/---------------------------------------------/

Verse 1 P.M. through all
e/------------------------/
B/------------------------/
G/--44-77-555-777--------/  X8
D/--22-55-555-777--------/
A/-------- 333-555--------/
E/------------------------/

Pre chorus Rhythm guitar
e/-------------------------------------/
B/-------------------------------------/
G/-33333333-7777-77777---------------/    X2
D/-33333333-5555-77777---------------/
A/-55555555------55555---------------/
E/-------------------------------------/

Pre chorus Lead guitar fill
e/-5553355533555355533555355533555355555-/
B/------------------------------------------/
G/------------------------------------------/   If you can decipher that, awesome.
D/-----------------------------------------/
A/-----------------------------------------/
E/-----------------------------------------/

Chorus Rhythm guitar
e/------------------------/
B/------------------------/
G/--44-77-555-777--------/  X4
D/--22-55-555-777--------/
A/-------- 333-555--------/
E/------------------------/

Chorus Lead guitar
e/----------/        /-5^5^5^5^*--/
B/----------/        /-----------5-/
G/----------/       /-------------/        *As you pick, keep bending until pitch is the same as the
D/-2--45-2-/ X4   /-------------/         sixth fret. 
A/----------/       /-------------/
E/---------- /      /-------------/

Verse 2 P.M. through all.
e/------------------------/
B/------------------------/
G/--44-77-555-777--------/  X8
D/--22-55-555-777--------/
A/-------- 333-555--------/
E/------------------------/

Lead fill during fourth part of verse 2
e/-6^-(7)----/  Bend to note in parentheses
B/----------/
G/---------/
D/---------/
A/---------/
E/---------/
[ Tab from: http://www.guitaretab.com/r/ramones/15540.html ]
Lead fill during sixth part of verse 2
e----------------/
B-(12)v10*-9^(10)-/   * On the ninth fret, pre-bend to twelfth fret, and release it making it sound
G---------------/      like you slid from the twelfth to the ninth. You could do this too. Whichever
D---------------/      is easier.
A---------------/
E---------------/

Pre chorus Rhythm guitar
e/-------------------------------------/
B/-------------------------------------/
G/-33333333-7777-77777---------------/    X2
D/-33333333-5555-77777---------------/
A/-55555555------55555---------------/
E/-------------------------------------/

Pre chorus Lead guitar fill
e/-5553355533555355533555355533555355555-/
B/------------------------------------------/
G/------------------------------------------/   
D/-----------------------------------------/
A/-----------------------------------------/
E/-----------------------------------------/


Chorus Rhythm guitar
e/------------------------/
B/------------------------/
G/--44-77-555-777--------/  X4
D/--22-55-555-777--------/
A/-------- 333-555--------/
E/------------------------/

Chorus Lead guitar
e/----------/        /-5^5^5^5^*--/
B/----------/        /-----------5-/
G/----------/       /-------------/        *As you pick, keep bending until pitch is the same as the
D/-2--45-2-/ X4   /-------------/         sixth fret. 
A/----------/       /-------------/
E/---------- /      /-------------/

e/---------/
B/---------/
G/---------/
D/-2222----/   X4
A/-2222----/
E/-0000----/

Solo Lead guitar
e/-5553355533555355533555355533555355555-/
B/------------------------------------------/
G/------------------------------------------/   
D/-----------------------------------------/
A/-----------------------------------------/
E/-----------------------------------------/

Solo Rhythm guitar
e/-------------------------------------/
B/-------------------------------------/
G/-33333333-7777-77777---------------/    X2
D/-33333333-5555-77777---------------/
A/-55555555------55555---------------/
E/-------------------------------------/

Outro
Chorus Rhythm guitar
e/------------------------/
B/------------------------/
G/--44-77-555-777--------/  X8
D/--22-55-555-777--------/
A/-------- 333-555--------/
E/------------------------/

Chorus Lead guitar
e/----------/        
G/----------/             
D/-2--45-2-/ X8            
A/----------/       
E/---------- /      

Lead fill for fourth part of outro verse
e/-5^5^5^5^----/
B/----------5--/
G/-------------/
D/-------------/
A/-------------/
E/-------------/

Lead fill for sixth part of outro verse
e/-12121212- ---/
B/---------- ---/
G/-------------/
D/-------------/
A/-------------/
E/-------------/

Last note.
e/----------/
B/----------/
G/-2^(3)----/   Let ring.
D/---------/
A/---------/
E/---------/

Hope this wasn't too difficult, It's my first tab. 
Please comment.


Related for I Wanna Live tab
Advertisement will be closed in 10 seconds