Song name
# A B C D E F G H I J K L M N O P Q R S T U V W X Y Z

Ramones - My Back Pages tab

Help us improve GuitareTab! Take a short survey!
Ramones
My back pages

[ B  E ] x3

E

E       C#         G#                        A        B      E
Crimson flames tied through my ears, rollin' high and mighty traps
E         C#       G#                  A           B
Pounced with fire on flaming roads, using ideas as my maps
C#                       G#           A               B
We'll meet on  edges, soon said I, proud 'neath heated brow

  E             A     E
Ah but I was so much older then
 A       B         E
I'm younger than that now

Half-wracked prejudice leaped forth, rip down all hate I scream
Lies that life is black and white, spoke from my skull I dreamed
Romantic flanks of musketeers, foundation deep somehow

Ah but I was so much older...

In a soldier's stance I aimed my hand at the mongrel dogs who teach
Fearing not that I'd become my enemy in the instant that I preach
My pathway led to confusion boats, mutiny from stern to bow

Ah but I was so much older...

e|------------------------------------------------------------------------|
B|------------------------------------------------------------------------|
G|-9-9-9-8-6-6----------6-6-6--------6-9-9-9-8-6-6---------6-6-6----------|
D|-------------9-9--6-9-------9-9~--9------------9-9-6-9---------9-9b(11)-|
A|------------------------------------------------------------------------|
E|------------------------------------------------------------------------|

e|------------------------------------------------------|
B|-------------8--------------------------------9-------|
G|----6-8b(10)===(10)\8-6-8-9-9-9-9-11-11-11-11---------|
D|--9---------------------------------------------------|
A|------------------------------------------------------|
E|------------------------------------------------------|


Ah but I was so much older...

Yes my guards stood hard when abstract threats too nobel to neglect
Deceived me into thinking I had something to protect
Good and bad, I define these terms quite clear, no doubt, somehow

   Ah but I was so much older...

   Ah but I was so much older...

   Ah but I was so much older...


Aca puse el solo que no estaba en la otra tab
Mail:meconvertienunmarciano@hotmail.com
Related for My Back Pages tab