Guitaretab - guitar tabs
Song name
# A B C D E F G H I J K L M N O P Q R S T U V W X Y Z

Ramones - Poison Heart tab

Ramones
Poison heart

C#5 B5 x3  A5

e|--------------------------------------------------------------------------|
B|---5-4-4-5-0--5-4-2-4-5-4-0----5-4-5-0--5-4-2-4-5-4-0----5--4-5-0--5-4-2--|
G|-6---------------------------6-------------------------6------------------|
D|--------------------------------------------------------------------------|
A|--------------------------intro-------------------------------------------|
E|--------------------------------------------------------------------------|

e|---------|---0------0------|
B|-4-5-4-0-|-----0------0----|
G|---------|-2------2--------|
D|---------|-----------------|
A|---------|----riff 1-------|
E|---------|-----------------|

C5         E5       C5              E5
No one ever thought this one would survive.
C5            E5            A5 + riff 1      B5 + riff1
Helpless child, gonna walk a drum beat behind.
Lock you in a dream, never let you go,
never let you laugh or smile, not you.

      A5              B5          C#5         A5
Well, I just want to walk right out of this world,
                    B5            C#5
'cause everybody has a poison heart.
   A%              B5          C#5         A5
I just want to walk right out of this world,
                    B5            C#5
'cause everybody has a poison heart.


e|------------------------------------------------------------|
B|---5--4-5-0--5-4-2-4-5-4-0-----5-4-5-0--5-4-2-4-5-4-0-------|
G|-6---------------------------6------------------------------|
D|------------------------------------------------------------|
A|------------------------------------------------------------|
E|------------------------------------------------------------|


Making friends with a homeless torn up man,
he just kind of smiles, it really shakes me up.
There's danger on every corner but I'm okay,
walking down the street trying to forget yesterday.
[ Tab from: http://www.guitaretab.com/r/ramones/15551.html ]
Well, I just want to walk right out of this world,
'cause everybody has a poison heart.
I just want to walk right out of this world,
'cause everybody has a poison heart,
B5         C#5   B5         C#5   B5         A5  + intro + riff1
a poison heart, a poison heart, a poison heart.

E5  A5  E5  A5

e|-4-5-7-5-4--9-10-12-10-9--4-5-7-5-4--9-10-12-10--------------------------|
B|-4-5-7-5-4--9-10-12-10-9--4-5-7-5-4--9-10-12-10--------------------------|
G|-------------------------------------------------------------------------|
D|-------------------------------------------------------------------------|
A|-------------------------------------------------------------------------|
E|-------------------------------------------------------------------------|

You know that life really takes its toll
and a poet's gut reaction is to search his very soul.
So much damn confusion before my eyes,
but nothing seems to phase me and this one still survives.

A5      B5       C#5      A5
I just want to walk right out of this world,
B5    C#5  + riff 2
'cause everybody has a poison heart.

e|------------------------|
B|555545555555555555555---|
G|------------------------|
D|-----riff 2-------------|
A|------------------------|
E|------------------------|

A5      B5       C#5      A5
I just want to walk right out of this world,
B5    C#5 + riff 3
'cause everybody has a poison heart,

e|------------------------|
B|55554444422222222-------|
G|------------------------|
D|-----riff 3-------------|
A|------------------------|
E|------------------------|

A5      B5       C#5      A5
I just want to walk right out of this world,
B5    C#5
'cause everybody has a poison heart,

B5         C#5   B5         C#5   B5         C#5   B5
a poison heart, a poison heart, a poison heart.
            C#5   B5         C#5   B5 + intro        A5 + riff 1 x2
a poison heart, a poison heart, a poison heart.

B5 C#5

Me caanse copiando pero ahi esta toda la cancion hay partes de la segunda guitarra que 
puse.Solamente puse las que mas suenan...
Que la disfruten
Mail:meconvertienunmarciano@hotmail.com
Related for Poison Heart tab
×
Poison Heart