Guitaretab - guitar tabs
Song name
# A B C D E F G H I J K L M N O P Q R S T U V W X Y Z

Ramones - Lets Go tab

-------------------------------------------------------------------------------
			     "Let's Go," by The Ramones                      
-------------------------------------------------------------------------------
Tabbed by: Judasrising666
Email: Judasrising666666@sbcglobal.net

Tuning: Standard
 
Intro/Chorus

  Let's go!
e|---------------------------------------------------------------------------|
B|---------------------------------------------------------------------------|
G|9999-444-5555---7----------------------------------------------------------|
D|9999-444-5555-5-7----------------------------------------------------------|
A|7777-222-3333-5-5----------------------------------------------------------|
E|--------------3------------------------------------------------------------|

Post Chorus

e|---------------------------------------------------------------------------|
B|---------------------------------------------------------------------------|
G|---------------------------------------------------------------------------|
D|99999-44444-5--------------------------------------------------------------|
A|99999-44444-5--------------------------------------------------------------|
E|77777-22222-3--------------------------------------------------------------|

Verse

 Don't wanna study on the G.I. bill. 
 Want more action, haven't had my fill 
 Mercanary fight for anyone 
 Fight for money, fight for fun

 Got a country you wanna protect 
 But your army is more likely to defect
 Hire my SMG with a full clip 
 On automatic it's a guaranteed hit
[ Tab from: http://www.guitaretab.com/r/ramones/156126.html ]
 Shocked how deadly we fight back
 Troublemakers who attack
 Mecanary fight for anyone 
 Fight for money, fight for fun 

e|---------------------------------------------------------------------------|
B|---------------------------------------------------------------------------|
G|-------------------------5---7---------------------------------------------|
D|-7-----------------------5---7---------------------------------------------|
A|-7-----------------------3---5---------------------------------------------|
E|-5-------------------------------------------------------------------------|

Middle Interlude

 Gee it's kinda scary out here mosquitos are happy tonight
 Mommy, Daddy, can I please come home even if just for one more night

e|---------------------------------------------------------------------------|
B|---------------------------------------------------------------------------|
G|---------------------------------------------------------------------------|
D|-------------------------555555555555-777777777777-------------------------|
A|22222222222-555555555555-333333333333-555555555555-------------------------|
E|00000000000-333333333333---------------------------------------------------|
  xxxxxxxx xxxxxxxx xxxxxxxx xxxxxxxx

Song Structure

Intro/Chorus 4x
Post Chorus 2x
Verse 4x
Intro/Chorus 4x
Post Chorus 2x
Verse 4x
Intro/Chorus 4x
Post Chorus 2x
Middle Interlude 4x
Intro/Chours 4x
Post Chorus 2x
Verse 4x
Intro/Chorus 8x

| /  slide up
| \  slide down
| h  hammer-on
| p  pull-off
| ~  vibrato
| +  harmonic
| x  palm mute
===============================================================================
Related for Lets Go tab