Song name
# A B C D E F G H I J K L M N O P Q R S T U V W X Y Z

Ramones - Glad To See You Go tab

Help us improve GuitareTab! Take a short survey!
Glad To See You Go by the Ramones
(standard tuning)

|------------------------------------|
|------------------------------------|
|-7--7--7--7-7-7-7--6--6--6--6-6-6-6-|
|-7--7--7--7-7-7-7--7--7--7--7-7-7-7-|
|-5--5--5--5-5-5-5--7--7--7--7-7-7-7-|
|-------------------5--5--5--5-5-5-5-|
4 times

|------------------------------------------------------------------------|
|------------------------------------------------------------------------|
|-4-4-4-4--4-4-4-4--4-4-4-4--4-4-4-4--6-6-6-6--6-6-6-6--6-6-6-6--6-6-6-6-|
|-5-5-5-5--5-5-5-5--5-5-5-5--5-5-5-5--7-7-7-7--7-7-7-7--7-7-7-7--7-7-7-7-|
|-5-5-5-5--5-5-5-5--5-5-5-5--5-5-5-5--7-7-7-7--7-7-7-7--7-7-7-7--7-7-7-7-|
|-3-3-3-3--3-3-3-3--3-3-3-3--3-3-3-3--5-5-5-5--5-5-5-5--5-5-5-5--5-5-5-5-|


|------------------------------------|
|------------------------------------|
|-7--7--7--7-7-7-7--6--6--6--6-6-6-6-|
|-7--7--7--7-7-7-7--7--7--7--7-7-7-7-|
|-5--5--5--5-5-5-5--7--7--7--7-7-7-7-|
|-------------------5--5--5--5-5-5-5-|


|--------------------------------------|
|--------------------------------------|
|--6-6-6-6--6-6-6-6--6-6-6-6--6-6-6-6--|
|--7-7-7-7--7-7-7-7--7-7-7-7--7-7-7-7--|
|--7-7-7-7--7-7-7-7--7-7-7-7--7-7-7-7--|
|--5-5-5-5--5-5-5-5--5-5-5-5--5-5-5-5--|


|-------------------------------------------------------------|
|-4-4-4-4--4-4-4-4--6-6-6-6--6-6-6-6--------------------------|
|-5-5-5-5--5-5-5-5--7-7-7-7--7-7-7-7--6--7--6--7--6--7--6--7--|
|-5-5-5-5--5-5-5-5--7-7-7-7--7-7-7-7--7--7--7--5--7--5--7--5--|
|-3-3-3-3--3-3-3-3--5-5-5-5--5-5-5-5--7--5--7--5--7--5--7--5--|
|-------------------------------------5-----5-----5-----5-----|


|------------------------------------------------------------------------|
|------------------------------------------------------------------------|
|------------------------------------------------------------------------|
|-5-5-5-5--5-5-5-5--------------------4-4-4-4--4-4-4-4--4-4-4-4--4-4-4-4-|
|-3-3-3-3--3-3-3-3--5-5-5-5--5-5-5-5--2-2-2-2--2-2-2-2--2-2-2-2--2-2-2-2-|
|-------------------3-3-3-3--3-3-3-3-------------------------------------|
Related for Glad To See You Go tab