Guitaretab - guitar tabs
Song name
# A B C D E F G H I J K L M N O P Q R S T U V W X Y Z

Ramones - Now I Wanna Sniff Some Glue Live tab

-----------------------------------------------------------------------------
Song name: NOW I WANNA SNIFF SOME GLUE
Artist: RAMONES
Album: IT'S ALIVE (1979)
-----------------------------------------------------------------------------

Tuning: STANDARD
Tabbed by: headbanger_89


:: Verse ::

G5          F5               
Now I wanna sniff some glue!
G5               F5
Now I wanna have something to do!
G5                 F5               
All the kids wanna sniff some glue!
G5                      F5
All the kids wanna have something to do!

e|--------------------------------------------------------------------------|
B|--------------------------------------------------------------------------|
G|--------------------------------------------------------------------------|
D|--5--5-5-5-5-5-5-3--3-3-3-3-3-3-5--5-5-5-5-5-5-3--3-3-3-3-3-3-------------|
A|--5--5-5-5-5-5-5-3--3-3-3-3-3-3-5--5-5-5-5-5-5-3--3-3-3-3-3-3-------------|
E|--3--3-3-3-3-3-3-1--1-1-1-1-1-1-3--3-3-3-3-3-3-1--1-1-1-1-1-1-------------|

e|--------------------------------------------------------------------------|
B|--------------------------------------------------------------------------|
G|--------------------------------------------------------------------------|
D|--5--------3--------8--------7--------------------------------------------|
A|--5--------3--------8--------7--------------------------------------------|
E|--3--------1--------6--------5--------------------------------------------|

--
(Voice only)

Now I wanna sniff some glue!
Now I wanna have something to do!
All the kids wanna sniff some glue!
All the kids wanna have something to do!
--

e|--------------------------------------------------------------------------|
B|--------------------------------------------------------------------------|
G|--------------------------------------------------------------------------|
D|--5--------3--------8--------7--------------------------------------------|
A|--5--------3--------8--------7--------------------------------------------|
E|--3--------1--------6--------5--------------------------------------------|

One, two, three, four, five, six, seven, height...!


:: Solo ::

(X 4)
e|--------------------------------------------------------------------------|
B|--------------------------------------------------------------------------|
G|--------------------------------------------------------------------------|
D|--------------------------------------------------------------------------|
A|--------------------8-h10-------------------8-----------------------------|
E|--10-10-10-10-8-h10-------10-10-10-10-8-h10-------------------------------|


:: Bridge ::
[ Tab from: http://www.guitaretab.com/r/ramones/176212.html ]
e|--------------------------------------------------------------------------|
B|--------------------------------------------------------------------------|
G|--------------------------------------------------------------------------|
D|--5--------3--------8--------7--------------------------------------------|
A|--5--------3--------8--------7--------------------------------------------|
E|--3--------1--------6--------5--------------------------------------------|


:: Verse ::

G5          F5               
Now I wanna sniff some glue!
G5               F5
Now I wanna have something to do!
G5                 F5               
All the kids wanna sniff some glue!
G5                      F5
All the kids wanna have something to do!

e|--------------------------------------------------------------------------|
B|--------------------------------------------------------------------------|
G|--------------------------------------------------------------------------|
D|--5--5-5-5-5-5-5-3--3-3-3-3-3-3-5--5-5-5-5-5-5-3--3-3-3-3-3-3-------------|
A|--5--5-5-5-5-5-5-3--3-3-3-3-3-3-5--5-5-5-5-5-5-3--3-3-3-3-3-3-------------|
E|--3--3-3-3-3-3-3-1--1-1-1-1-1-1-3--3-3-3-3-3-3-1--1-1-1-1-1-1-------------|

G5          F5               
Now I wanna sniff some glue!
G5               F5
Now I wanna have something to do!
G5                 F5               
All the kids wanna sniff some glue!
G5                      F5
All the kids wanna have something to do!

e|--------------------------------------------------------------------------|
B|--------------------------------------------------------------------------|
G|--------------------------------------------------------------------------|
D|--5--5-5-5-5-5-5-3--3-3-3-3-3-3-5--5-5-5-5-5-5-3--3-3-3-3-3-3-------------|
A|--5--5-5-5-5-5-5-3--3-3-3-3-3-3-5--5-5-5-5-5-5-3--3-3-3-3-3-3-------------|
E|--3--3-3-3-3-3-3-1--1-1-1-1-1-1-3--3-3-3-3-3-3-1--1-1-1-1-1-1-------------|


:: Outro ::

(X 3)
e|--------------------------------------------------------------------------|
B|--------------------------------------------------------------------------|
G|--------------------------------------------------------------------------|
D|--5--5-5-5-5-5-5-3--3-3-3-3-3-3-8--8-8-8-8-8-8-7--7-7-7-7-7-7-------------|
A|--5--5-5-5-5-5-5-3--3-3-3-3-3-3-8--8-8-8-8-8-8-7--7-7-7-7-7-7-------------|
E|--3--3-3-3-3-3-3-1--1-3-1-1-1-1-6--6-6-6-6-6-6-5--5-5-5-5-5-5-------------|

e|--------------------------------------------------------------------------|
B|--------------------------------------------------------------------------|
G|--------------------------------------------------------------------------|
D|--5--5-5-5-5-5-5-3--3-3-3-3-3-3-8--8-8-8-8-8-8-7--------------------------|
A|--5--5-5-5-5-5-5-3--3-3-3-3-3-3-8--8-8-8-8-8-8-7--------------------------|
E|--3--3-3-3-3-3-3-1--1-3-1-1-1-1-6--6-6-6-6-6-6-5--------------------------|



Have fun! :)






=============================================================================
| /  slide up
| \  slide down
| h  hammer-on
| p  pull-off
| ~  vibrato
| +  harmonic
| x  Mute note
=============================================================================
Related for Now I Wanna Sniff Some Glue Live tab