Song name
# A B C D E F G H I J K L M N O P Q R S T U V W X Y Z

Ramones - Ramones Live tab

------------------------------------------------------------------------------
Song name: R.A.M.O.N.E.S.
Artist: RAMONES
Album: WE'RE OUTTA HERE! (1997)
------------------------------------------------------------------------------
- Guitar TAB -

Tabbed by: headbanger_89
Email: xheadbanger_89@yahoo.it

Tuning: STANDARD


:: Intro ::

(X 4)
e|---------------------------------------------------------------------------|
B|---------------------------------------------------------------------------|
G|--5-5-5-5-5-5-5-5----------------------------------------------------------|
D|--5-5-5-5-5-5-5-5----------------------------------------------------------|
A|--3-3-3-3-3-3-3-3----------------------------------------------------------|
E|---------------------------------------------------------------------------|


:: Verse 1 ::

New York City, NYC! Pretty mean when it wants to be
Black leather, knee-hole pants, can't play no high school dance

(X 2)
e|---------------------------------------------------------------------------|
B|---------------------------------------------------------------------------|
G|--5-5-5-5-5-5-5-5----------------------------------------------------------|
D|--5-5-5-5-5-5-5-5-5-5-5-5-3-3-3-3------------------------------------------|
A|--3-3-3-3-3-3-3-3-5-5-5-5-3-3-3-3------------------------------------------|
E|------------------3-3-3-3-1-1-1-1------------------------------------------|

Fuzz tone, hear 'em go, hear 'em on the radio

e|---------------------------------------------------------------------------|
B|---------------------------------------------------------------------------|
G|---------------------------------------------------------------------------|
D|--3-3-3-3-3-3-3-3-5-5-5-5-5-5-5-5------------------------------------------|
A|--3-3-3-3-3-3-3-3-5-5-5-5-5-5-5-5------------------------------------------|
E|--1-1-1-1-1-1-1-1-3-3-3-3-3-3-3-3------------------------------------------|

(Chorus)
Misfits, twilight zone, R-A-M-O-N-E-S, R-A-M-O-N-E-S RAMONES!

e|---------------------------------------------------------------------------|
B|---------------------------------------------------------------------------|
G|---------------------------------------------------------------------------|
D|--3-3-3-3-3-3-3-3-5-5-5-5-5-5-5-5-8-8-8-8-8-8-8-8--------------------------|
A|--3-3-3-3-3-3-3-3-5-5-5-5-5-5-5-5-8-8-8-8-8-8-8-8--------------------------|
E|--1-1-1-1-1-1-1-1-3-3-3-3-3-3-3-3-6-6-6-6-6-6-6-6--------------------------|

(X 2)
e|---------------------------------------------------------------------------|
B|---------------------------------------------------------------------------|
G|--5-5-5-5-5-5-5-5----------------------------------------------------------|
D|--5-5-5-5-5-5-5-5----------------------------------------------------------|
A|--3-3-3-3-3-3-3-3----------------------------------------------------------|
E|---------------------------------------------------------------------------|


:: Verse 2 ::

Bad boy rock, bad boy roll, gabba gabba see them go
C.Jay now hit the gas, Mark takes it up the ass

(X 2)
e|---------------------------------------------------------------------------|
B|---------------------------------------------------------------------------|
G|--5-5-5-5-5-5-5-5----------------------------------------------------------|
D|--5-5-5-5-5-5-5-5-5-5-5-5-3-3-3-3------------------------------------------|
A|--3-3-3-3-3-3-3-3-5-5-5-5-3-3-3-3------------------------------------------|
E|------------------3-3-3-3-1-1-1-1------------------------------------------|

Go Johnny go, go, go, go Tommy o-way-o

e|---------------------------------------------------------------------------|
B|---------------------------------------------------------------------------|
G|---------------------------------------------------------------------------|
D|--3-3-3-3-3-3-3-3-5-5-5-5-5-5-5-5------------------------------------------|
A|--3-3-3-3-3-3-3-3-5-5-5-5-5-5-5-5------------------------------------------|
E|--1-1-1-1-1-1-1-1-3-3-3-3-3-3-3-3------------------------------------------|

(Chorus)
Misfits, twilight zone, R-A-M-O-N-E-S, R-A-M-O-N-E-S RAMONES!

e|---------------------------------------------------------------------------|
B|---------------------------------------------------------------------------|
G|---------------------------------------------------------------------------|
D|--3-3-3-3-3-3-3-3-5-5-5-5-5-5-5-5-8-8-8-8-8-8-8-8--------------------------|
A|--3-3-3-3-3-3-3-3-5-5-5-5-5-5-5-5-8-8-8-8-8-8-8-8--------------------------|
E|--1-1-1-1-1-1-1-1-3-3-3-3-3-3-3-3-6-6-6-6-6-6-6-6--------------------------|

(X 2)
e|---------------------------------------------------------------------------|
B|---------------------------------------------------------------------------|
G|--5-5-5-5-5-5-5-5----------------------------------------------------------|
D|--5-5-5-5-5-5-5-5----------------------------------------------------------|
A|--3-3-3-3-3-3-3-3----------------------------------------------------------|
E|---------------------------------------------------------------------------|


:: Bridge ::

(X 4)
e|---------------------------------------------------------------------------|
B|---------------------------------------------------------------------------|
G|--5-5-----7-7--------------------------------------------------------------|
D|--5-5-5-5-7-7-7-7----------------------------------------------------------|
A|--3-3-5-5-5-5-7-7----------------------------------------------------------|
E|------3-3-----5-5----------------------------------------------------------|

(X 2)
e|---------------------------------------------------------------------------|
B|---------------------------------------------------------------------------|
G|---------------------------------------------------------------------------|
D|--7-7-7-7-7-7-7-7----------------------------------------------------------|
A|--7-7-7-7-7-7-7-7----------------------------------------------------------|
E|--5-5-5-5-5-5-5-5----------------------------------------------------------|


:: Verse 3 ::

Bad boys then, bad boys now, good buddies mau, mau, mau
Keep it up, rock 'n' roll, good music save your soul

(X 2)
e|---------------------------------------------------------------------------|
B|---------------------------------------------------------------------------|
G|--5-5-5-5-5-5-5-5----------------------------------------------------------|
D|--5-5-5-5-5-5-5-5-5-5-5-5-3-3-3-3------------------------------------------|
A|--3-3-3-3-3-3-3-3-5-5-5-5-3-3-3-3------------------------------------------|
E|------------------3-3-3-3-1-1-1-1------------------------------------------|

Dee Dee, he left home, Joey calls me on the phone

e|---------------------------------------------------------------------------|
B|---------------------------------------------------------------------------|
G|---------------------------------------------------------------------------|
D|--3-3-3-3-3-3-3-3-5-5-5-5-5-5-5-5------------------------------------------|
A|--3-3-3-3-3-3-3-3-5-5-5-5-5-5-5-5------------------------------------------|
E|--1-1-1-1-1-1-1-1-3-3-3-3-3-3-3-3------------------------------------------|

(Chorus)
Misfits, twilight zone, R-A-M-O-N-E-S, R-A-M-O-N-E-S RAMONES!

e|---------------------------------------------------------------------------|
B|---------------------------------------------------------------------------|
G|---------------------------------------------------------------------------|
D|--3-3-3-3-3-3-3-3-5-5-5-5-5-5-5-5-8----------------------------------------|
A|--3-3-3-3-3-3-3-3-5-5-5-5-5-5-5-5-8----------------------------------------|
E|--1-1-1-1-1-1-1-1-3-3-3-3-3-3-3-3-6----------------------------------------|
Tap to rate this tab
 
# A B C D E F G H I J K L M N O P Q R S T U V W X Y Z